Oar - I Feel Home Chords & Tabs

 

I Feel Home Chords & Tabs

Oar Chords & Tabs

Version: 1 Type: Tab 3 ratings
1 star 2 stars 3 stars 4 stars 5 stars
comments

I Feel Home Tab

Here it is the greatest O.A.R. song ever

h = hammer on

Intro

e--------  x2
b---0h1--
g---0h2--
d---0h2--
a--------
E--------

e---------------------- x4, listen for the rhythm
b---0h1---1---0h1---1--
g---0h2---2---0h2---2--
d---0h2---2---0h2---2--
a----------------------
E----------------------
[ Tab from: http://www.guitartabs.cc/tabs/o/oar/i_feel_home_tab.html ]
e--(3)-(3)--3--(3)-  x2
b---1---1-------1-- 
g---2---0-------0--  (3) = optional
d---3---2---x---2--  
a-------3---2---3--  
E-----------3------  

Verse

e-----------3------
b---1---1-------1--
g---2---0-------0--
d---3---2---x---2--
a-------3---2---3--
E-----------3------

Chorus

e-------3----------
b---1-------1---1--
g---0-------2---2--
d---2---x---2---2--
a---3---2----------
E-------3-----------
Comments