Oar - Hey Girl Chords & Tabs

 

Hey Girl Chords & Tabs

Oar Chords & Tabs

Version: 2 Type: Chords 0 ratings
1 star 2 stars 3 stars 4 stars 5 stars
comments

Hey Girl Chords

Here are a few versions of the song I've seen.

1. Bar Chords
E-----5--7--5--|
B-----5--7--5--|
G--1--6--8--6--|
D--2--7--9--7--|
A--2--7--9--7--|
E-----5--7--5--|

2. Chords (Easiest)
E--------------|
B-----2--4--2--|
G--1--2--4--2--|
D--2--2--4--2--|
A--2-----------|
E--------------|
[ Tab from: http://www.guitartabs.cc/tabs/o/oar/hey_girl_crd_ver_2.html ]
3. Chords (Different)
E--------2-----|
B-----2--4--2--|
G--1--2--4--2--|
D--2--2--4--2--|
A--2-----------|
E--------------|

4. The Version Marc plays in the Hey Girl Video
E-----x--x--x--|
B-----5--7--5--|
G--1--6--8--6--|
D--2--7--9--7--|
A--2--x--x--x--|
E-----x--x--x--|


Bridge

Just play one of the versions slow. Strum it once in normal time.
Listed to the song to get it right.

This was my first tab and I hope you all like it.

Any questions/comments,
joshpwc@yahoo.com
Comments