Oar - Dareh Meyod Chords & Tabs

 

Dareh Meyod Chords & Tabs

Oar Chords & Tabs

Version: 2 Type: Tab

Dareh Meyod Tab

this is the part in the back during the bridge.

v: vibrato
You can hammer a lot of these on if you like or just pick really fast.


e -------------------------------------------------7-----7--7-----7--9v--|
B -------------------------------7-----7--9--7--9-----9--------9---------|
G -------------6-----6--9--6--9-----9------------------------------------|
D -6--9--6--9-----9------------------------------------------------------| 2x
A -----------------------------------------------------------------------|
E -----------------------------------------------------------------------|
[ Tab from: http://www.guitartabs.cc/tabs/o/oar/dareh_meyod_tab_ver_2.html ]
e -9--7--9--7-----7--------------------------------------------------|
B -------------9-----9--7--9--7--------------------------------------|
G -------------------------------9--6-----------6--------------------|
D -------------------------------------9--6--9-----9--6--------------|
A --------------------------------------------------------9--6-------|
E --------------------------------------------------------------9-9--|

e -9--7--9--7-----7----------------------------------------------------|
B -------------9-----9--7--9--7----------------------------------------|
G -------------------------------9--6-----------6------------6--9--9b--|
D -------------------------------------9--6--9-----9--6---9------------|
A ---------------------------------------------------------------------|
E ---------------------------------------------------------------------|