Oar - Crazy Game Of Poker Chords & Tabs

 

Crazy Game Of Poker Chords & Tabs

Oar Chords & Tabs

Version: 1 Type: Tab 3 ratings
1 star 2 stars 3 stars 4 stars 5 stars
comments

Crazy Game Of Poker Tab

   
Intro

lead

E-10-10-10--8-x-8--5-5------------------------------
B-8--8--8---8-x-8--5-5------------------------------
G-----------------------7b-5-----5-----5-7-8-7-5-7-5
D----------------------------5-7---5-7--------------
A---------------------------------------------------
E---------------------------------------------------

E---------------------------------------------------
B---------------------------------------------------
G------------5-7-8b-7-8b-7--9-10-10-12-12/14-12-10-9
D-------5-7-----------------------------------------
A-5-6-7---------------------------------------------
E---------------------------------------------------


E-------------------------------8-10-8-8-10-8-8-----
B-----------------------5-7/10----------------------
G-----------------4-5-7-----------------------------
D-------------5-7-----------------------------------
A-------5-7-8---------------------------------------
E-5-7-8---------------------------------------------

E-7-8-10-8-----------------------------------------
B--------------------------------------------------
G--------------------------------------------------
D--------------------------------------------------
A--------------------------------------------------
E--------------------------------------------------

Rhythm guitar plays this progression throughout intro
Listen for accents

E-0--3--0--1---------------------------------------
B-1--3--1--1---------------------------------------
G-0--0--2--2---------------------------------------
D-2--0--2--3---------------------------------------
A-3--2--0--1---------------------------------------
E-0--3--0--1---------------------------------------
  C  G  Am F


Verse 1

E-0--3--0--1---------------0--0----------------------
B-1--3--1--1---------------0-h1----------------------
G-0--0--2--2--- -----------0-h2---------------------- 
D-2--0--2--3---------------0-h2----------------------
A-3--2--0--1---------------0--0----------------------
E-0--3--0--1---------------0--0----------------------
  C  G  Am F



Verse 2


E-0--3--0--1---------------0--0----------------------
B-1--3--1--1---------------0-h1----------------------
G-0--0--2--2--- -----------0-h2---------------------- 
D-2--0--2--3---------------0-h2----------------------
A-3--2--0--1---------------0--0----------------------
E-0--3--0--1---------------0--0----------------------
  C  G  Am F
[ Tab from: http://www.guitartabs.cc/tabs/o/oar/crazy_game_of_poker_tab.html ]
Chorus
Played with ska upstroke

E-0--3--0--1---------------0--0----------------------
B-1--3--1--1---------------0-h1----------------------
G-0--0--2--2--- -----------0-h2---------------------- 
D-2--0--2--3---------------0-h2----------------------
A-3--2--0--1---------------0--0----------------------
E-0--3--0--1---------------0--0----------------------
  C  G  Am F

Verse 3

E-0--3--0--1---------------0--0----------------------
B-1--3--1--1---------------0-h1----------------------
G-0--0--2--2--- -----------0-h2---------------------- 
D-2--0--2--3---------------0-h2----------------------
A-3--2--0--1---------------0--0----------------------
E-0--3--0--1---------------0--0----------------------
  C  G  Am F

Chorus 2

E-0--3--0--1-----------------------------------------
B-1--3--1--1-----------------------------------------
G-0--0--2--2--- ------------------------------------- 
D-2--0--2--3-----------------------------------------
A-3--2--0--1-----------------------------------------
E-0--3--0--1-----------------------------------------
  C  G  Am F

Solo 

E--8-8-10-10-10-10--8-x-8-5--------------------------
B---8---8--8--8--8--8-x-8-5--------------------------
G---------------------------7-5---5-7-5--------------
D------------------------------5-7-------------------
A----------------------------------------------------
E----------------------------------------------------







E-8-5------------------------------------------------
B-----8-5--------------------------------------------
G---------7-5-7-5-----5-7-8-7-5-7-----------5-7------
D----------------5-h7-------------------5-7----------
A---------------------------------5-6-7--------------
E----------------------------------------------------

E--4-4--8-8-8-10-10-10-8--12--12-13-12-15-13-12------
B-4-4-4--8-8---8--8--8-8----12-----------------15-13-
G----------------------------------------------------
D----------------------------------------------------
A----------------------------------------------------
E----------------------------------------------------

E----------------------------------------------------
B--12-13---------------------------------------------
G----------------------------------------------------
D----------------------------------------------------
A----------------------------------------------------
E----------------------------------------------------








Comments