Oar - Crazy Game Of Poker Chords & Tabs

 

Crazy Game Of Poker Chords & Tabs

Oar Chords & Tabs

Version: 1 Type: Bass Tab 0 ratings
1 star 2 stars 3 stars 4 stars 5 stars
comments

Crazy Game Of Poker Bass Tab

Band - Oar
Song - Crazy Game Of Poker
Instrument - Bass
Tabbed By - Hughma Coll

Listen Carefully, You'l Find it sounds priity good
I DID NOT WRITE THIS WHOLE TAB. Parts i copied from other tabs, but most i made, or
changed and ficed mistakes

GUITAR INTRO(No Bass)

VERSE 1
G--------------------------|G-----------------------|
D----------------------2p0-|D-----------------------|
A--33-3------00-0--3-3h5---|A--33-3------00-0-------|	
E-------33-3---------------|E-------33-3------11-1--| Repeat Untill Fill in
	
FILL IN(No Bass)
	 
VERSE 2
G--------------------------|G-----------------------|
D----------------------2p0-|D-----------------------|
A--33-3------00-0--3-3h5---|A--33-3------00-0-------|	
E-------33-3---------------|E-------33-3------11-1--| Repeat Untill Fill in

FILL IN(No Bass)

1st CHORUS
G-----0---------2----------|
D----2-----0---2----20-----|
A--33-----2--00------------|
E-------33-------11--------|

VERSE 3
G--------------------------|G-----------------------|
D----------------------2p0-|D-----------------------|
A--33-3------00-0--3-3h5---|A--33-3------00-0-------|	
E-------33-3---------------|E-------33-3------11-1--| Repeat Untill Fill in

FILL IN(No Bass)
[ Tab from: http://www.guitartabs.cc/tabs/o/oar/crazy_game_of_poker_btab.html ]
2nd CHorus
G--------------------------|
D--------------------------|
A--3-33-------0-00---------| x6 (untill singing stops) 123456 12345
E-------3-33--------1-11---|

G--------------------------|
D--------------------------|
A---33--------00-----------| x2 (second Time THe Guitar solo Starts)
E--------33---------11-----|

Guitar Solo 1 (3:00)

Rest Of The Song
G-------0-----------------2----------|
D------2---------0-------2--------20-|
A--33-3---------2----00-0------------|
E-----------33-3-------------11-1----|

G-------0----------------------------|
D------2----------0---------------20-|
A--33-3---------2----00-330----------|
E----------33-3---------------11-1---|

G-------0-------------------------2--|
D------2---------0---------------2-2-|
A--33-3---------2----00-330----------|
E------------33-3------------11-1----|

GUITAR SOLO 2 (4:21) 

GUITAR SOLO 3(5:45)

GUITAR SOLO 4 (7:47)

THe Last Time
G-------0-----------------2-------------------
D------2---------0-------2--------20----------
A--33-3---------2----00-0--------------*3~----
E-----------33-3-------------11-1-------------
(Guitar Solo, Bass and Drums end together on this note *)













out there for the real mules
Comments