Oar - Conquering Fools Chords & Tabs

 

Conquering Fools Chords & Tabs

Oar Chords & Tabs

Version: 1 Type: Tab 0 ratings
1 star 2 stars 3 stars 4 stars 5 stars
comments

Conquering Fools Tab

#----------------------------------PLEASE NOTE--------------------------------#
#This file is the author's own work and represents their interpretation of the#
#song. You may only use this file for private study, scholarship, or research.#
#-----------------------------------------------------------------------------#
#-- File created with Instab - http://www.pconline.com/~smcarey/instab.html --#
#-----------------------------------------------------------------------------#

Author/Artist: OAR Of A Revolution
Title: Conquering Fools
Transcribed by: Aaron Stark
Email: Stark668@aol.com

------------------------------------------------------------------------------|
-8/10-8-7-8-7-5-3---0h3-3--5-5/7-5-3-5--7-7/10-8-7-8-5-3----------------------|
------------------------------------------------------------------------------|
------------------------------------------------------------------------------|
------------------------------------------------------------------------------|
------------------------------------------------------------------------------|
 Intro- Im not to sure on this part     play twice
[ Tab from: http://www.guitartabs.cc/tabs/o/oar/conquering_fools_tab.html ]
------------------------------------------------------------------------------|
------------------------------------------------------------------------------|
-9----6-----------------------------------------------------------------------|
-9----6-----7-----9-----------------------------------------------------------|
-7----4-----7-----9-----------------------------------------------------------|
------------5-----7-----------------------------------------------------------|
 Intro Rythm        strum these

-12-12-12---9-9-9----5-5-5----7-7-7-------------------------------------------|
-12-12-12---9-9-9----5-5-5----7-7-7-------------------------------------------|
------------------------------------------------------------------------------|
------------------------------------------------------------------------------|
------------------------------------------------------------------------------|
------------------------------------------------------------------------------|
 Verse

-12---12------9---9------5---5------7---7-------------------------------------|
-12---12------9---9------5---5------7---7-------------------------------------|
------------------------------------------------------------------------------|
------------------------------------------------------------------------------|
------------------------------------------------------------------------------|
------------------------------------------------------------------------------|
 Chourus                  Solos in E major
Comments