Oar - Black Rock Chords & Tabs

 

Black Rock Chords & Tabs

Oar Chords & Tabs

Version: 1 Type: Tab 0 ratings
1 star 2 stars 3 stars 4 stars 5 stars
comments

Black Rock Tab

#----------------------------------PLEASE NOTE--------------------------------#
#This file is the author's own work and represents their interpretation of the#
#song. You may only use this file for private study, scholarship, or research.#
#-----------------------------------------------------------------------------#


=========================
== ARTIST: O.A.R       ==
== SONG: Black Rock    ==
== ALBUM: The Wanderer ==
== TAB BY: Hefty Baggs ==
=========================

  At least two guitars are used in "Black Rock".  I tried to show 
this by connecting the tab bars as seen directly below.  NOTE:
the amount of time spanded is not represented.  If a chord for
guitar 2 is showed during a certain note, it doesn't mean that
that is when the chord is strummed.  Listen to the song to get 
the rhythm and timing down.
  Also, the solo isn't perfect, but should give you guys an idea
of where to go from here.  You can be sure to see an updated
version of this tab in the near future.


  Intro:
-|----12-----------7-------------10-9-9-5-----5-----5/-|-
-|-------15-15\------10-10-5--------------------8-8----|-
-|-14------------9------------11------------7----------|-
-|-----------------------------------------------------|-
-|-----------------------------------------------------|-
-|-----------------------------------------------------|-
 |Guitar 2:                                                                            
-|-2-2--2-2-2--0-0--0-0-0--2-2--2-2-2--3-3--3-3-3-|-
-|-3-3--3-3-3--2-2--2-2-2--3-3--3-3-3--3-3--3-3-3-|-
-|-2-2--2-2-2--2-2--2-2-2--4-4--4-4-4--4-4--4-4-4-|-
-|-0-0--0-0-0--2-2--2-2-2--4-4--4-4-4--5-5--5-5-5-|-
-|-------------0-0--0-0-0--2-2--2-2-2--5-5--5-5-5-|-
-|-------------------------2-2--2-2-2--3-3--3-3-3-|-
                                                                              

-|----12-------------7-------------10-9-9-5----5-----5/-|-
-|-------15-15-10------10-10-5-------------------8-8----|-
-|-14--------------9------------11-----------7----------|-
-|------------------------------------------------------|-
-|------------------------------------------------------|-
-|------------------------------------------------------|-
 |Guitar 2:                                                                            
-|-2-2--2-2-2--0-0--0-0-0--2-2--2-2-2--3-3--3-3-3-|-
-|-3-3--3-3-3--2-2--2-2-2--3-3--3-3-3--3-3--3-3-3-|-
-|-2-2--2-2-2--2-2--2-2-2--4-4--4-4-4--4-4--4-4-4-|-
-|-0-0--0-0-0--2-2--2-2-2--4-4--4-4-4--5-5--5-5-5-|-
-|-------------0-0--0-0-0--2-2--2-2-2--5-5--5-5-5-|-
-|-------------------------2-2--2-2-2--3-3--3-3-3-|-                                                                             

  Leading to Verse:
-|-3-3-3-3-|-
-|-3-3-3-3-|-
-|-4-4-4-4-|-
-|-5-5-5-5-|-
-|-5-5-5-5-|-
-|-3-3-3-3-|-
                                                                              
  Verse:
-|-2-2--2-2--2-2--2-2--3-3--3-3-3--3-3--3-3-3-|-
-|-3-3--3-3--3-3--3-3--3-3--3-3-3--3-3--3-3-3-|-
-|-4-4--4-4--2-2--2-2--4-4--4-4-4--4-4--4-4-4-|-
-|-4-4--4-4--0-0--0-0--5-5--5-5-5--5-5--5-5-5-|-
-|-2-2--2-2------------5-5--5-5-5--5-5--5-5-5-|-
-|-2-2--2-2------------3-3--3-3-3--3-3--3-3-3-|-
[ Tab from: http://www.guitartabs.cc/tabs/o/oar/black_rock_tab.html ]
  Leading to Chorus:
-|-3-3-3-3-|-
-|-3-3-3-3-|-
-|-4-4-4-4-|-
-|-5-5-5-5-|-
-|-5-5-5-5-|-
-|-3-3-3-3-|-
                                                                              
  Chorus:
-|----------12-----------------7----------------10----9-5--------5---5/-|-
-|----------------15-10------------10-5---------------------------------|-
-|----14-12----14----------9-7---9---------11-9----11--------7-5---7----|-
-|-12--------------------7---------------9-----------------5------------|-
-|----------------------------------------------------------------------|-
-|----------------------------------------------------------------------|-                                                                       
 |Guitar 2:
-|-2-2--2-2-2--0-0--0-0-0--2-2--2-2-2--3-3--3-3-3-|-
-|-3-3--3-3-3--2-2--2-2-2--3-3--3-3-3--3-3--3-3-3-|-
-|-2-2--2-2-2--2-2--2-2-2--4-4--4-4-4--4-4--4-4-4-|-
-|-0-0--0-0-0--2-2--2-2-2--4-4--4-4-4--5-5--5-5-5-|-
-|-------------0-0--0-0-0--2-2--2-2-2--5-5--5-5-5-|-
-|-------------------------2-2--2-2-2--3-3--3-3-3-|-
                                                                              
  Solo:
-|------------------------------------------------------------------|-
-|--------------------------------------------------15--15p13p12----|-
-|-----------------------------------------11-13p11--------------14-|-
-|-------10h12h14-12-14-12-14b--12----12----------------------------|-
-|-10h12---------------------------14-------------------------------|-
-|------------------------------------------------------------------|-
                                                                              

-|------------------------------------------------------------|-
-|------------------------------------------------------------|-
-|-12p11p10-9-------------------10----------9-----------------|-
-|------------12-13p12-12-14-12----10h11h12---14p12-14b-12-12-|-
-|------------------------------------------------------------|-
-|------------------------------------------------------------|-
                                                                              

-|------------------------------------------------------------|-
-|----------10b-----------------------------------10p9/12-/15-|-
-|-------12-----12------------------------9h10-12-------------|-
-|-12h14-----------15--11-12h13--10h11/13---------------------|-
-|------------------------------------------------------------|-
-|------------------------------------------------------------|-
                                                                              

-|------------------------------------------------------|-
-|-14-14-14-15p14-12-11-13------------------------------|-
-|--------------------------11-13p11-11--12p11p10-------|-
-|------------------------------------------------12-10-|-
-|------------------------------------------------------|-
-|------------------------------------------------------|-
                                                                              

-|------------------------------------------------|-
-|------------------------------------------------|-
-|-14p12-12-----11p9-9-------------9-11--12-11-11-|-
-|----------14---------12-10-10-12----------------|-
-|------------------------------------------------|-
-|------------------------------------------------|-

  Verse:
-|-2-2--2-2--2-2--2-2--3-3--3-3-3--3-3--3-3-3-|-
-|-3-3--3-3--3-3--3-3--3-3--3-3-3--3-3--3-3-3-|-
-|-4-4--4-4--2-2--2-2--4-4--4-4-4--4-4--4-4-4-|-
-|-4-4--4-4--0-0--0-0--5-5--5-5-5--5-5--5-5-5-|-
-|-2-2--2-2------------5-5--5-5-5--5-5--5-5-5-|-
-|-2-2--2-2------------3-3--3-3-3--3-3--3-3-3-|-

  Leading to Chorus:
-|-3-3-3-3-|-
-|-3-3-3-3-|-
-|-4-4-4-4-|-
-|-5-5-5-5-|-
-|-5-5-5-5-|-
-|-3-3-3-3-|-

  Chorus:
-|----------12-----------------7----------------10----9-5--------5---5/-|-
-|----------------15-10------------10-5---------------------------------|-
-|----14-12----14----------9-7---9---------11-9----11--------7-5---7----|-
-|-12--------------------7---------------9-----------------5------------|-
-|----------------------------------------------------------------------|-
-|----------------------------------------------------------------------|-                                                                       
 |Guitar 2:
-|-2-2--2-2-2--0-0--0-0-0--2-2--2-2-2--3-3--3-3-3-|-
-|-3-3--3-3-3--2-2--2-2-2--3-3--3-3-3--3-3--3-3-3-|-
-|-2-2--2-2-2--2-2--2-2-2--4-4--4-4-4--4-4--4-4-4-|-
-|-0-0--0-0-0--2-2--2-2-2--4-4--4-4-4--5-5--5-5-5-|-
-|-------------0-0--0-0-0--2-2--2-2-2--5-5--5-5-5-|-
-|-------------------------2-2--2-2-2--3-3--3-3-3-|-

  Verse:
-|-2-2--2-2--2-2--2-2--3-3--3-3-3--3-3--3-3-3-|-
-|-3-3--3-3--3-3--3-3--3-3--3-3-3--3-3--3-3-3-|-
-|-4-4--4-4--2-2--2-2--4-4--4-4-4--4-4--4-4-4-|-
-|-4-4--4-4--0-0--0-0--5-5--5-5-5--5-5--5-5-5-|-
-|-2-2--2-2------------5-5--5-5-5--5-5--5-5-5-|-
-|-2-2--2-2------------3-3--3-3-3--3-3--3-3-3-|-

  Outro:
-|-3-3-3-3--2-|-
-|-3-3-3-3--3-|-
-|-4-4-4-4--4-|-
-|-5-5-5-5--4-|-
-|-5-5-5-5--2-|-
-|-3-3-3-3--2-|-


On the Black Rock, is where I spend my time
writing a memory, or writing a rhyme
thinking about what is right or wrong

On the Black Rock, is where I like to go
after a long night, coming home from a show
and that's where, I write my song
all day long, the Black Rock

Sometimes, I just look around
take in the feeling, coming out from the ground 
but thats just something I do sometimes

And then I just, come out the door
to take in the wind coming off of the shore
and thats just what I'm doing tonight

On the Black Rock, is where I spend my time
writing a memory, or writing a rhyme
thinking about what is right or wrong

On the Black Rock, is where I like to go
after a long night, coming home from a show
and that's where, I write my song
all day long, the Black Rock

[solo]

When you are, on your own
not speaking out is like fighting alone
and that is the worst damn way to fight

And when you are, scared no more
reach your hand out and just open the door
and thats just what we're doing tonight

On the Black Rock, is where I spend my time
writing a memory, or writing a rhyme
thinking about what is right or wrong

On the Black Rock, is where I like to go
after a long night, coming home from a show
and that's where, I write my song
all day long, the Black Rock
Comments