Oar - Anyway Chords & Tabs

 

Anyway Chords & Tabs

Oar Chords & Tabs

Version: 2 Type: Tab 0 ratings
1 star 2 stars 3 stars 4 stars 5 stars
comments

Anyway Tab

******************************
**   I have a revision      **
******************************


Intro/Verse
Standard Tuning
[ Tab from: http://www.guitartabs.cc/tabs/o/oar/anyway_tab_ver_2.html ]
e|--0--0--0--0----0--0--0~---|
B|--0--5--0--0----0--5--0~---|
G|--1--4--6--8----1--4--6~---|
D|--2--2--7--9----2--2--7~---|
A|--2--X--7--9----2--X--7~---|
E|--0--4--5--7----0--4--5~---|

e|--0--0--0--0----0--0--0~---|
B|--0--5--0--0----0--5--0~---|
G|--1--4--6--8----1--4--6~---|
D|--2--2--7--9----2--2--7~---|
A|--2--X--7--9----2--X--7~---|
E|--0--4--5--7----0--4--5~---|

I think this is right...

any questions/comments jkorty@purdue.edu
Comments