Oar - About Mr Brown Chords & Tabs

 

About Mr Brown Chords & Tabs

Oar Chords & Tabs

Version: 1 Type: Tab 0 ratings
1 star 2 stars 3 stars 4 stars 5 stars
comments

About Mr Brown Tab

   
--------------------
O.A.R.
About Mr. Brown
Tabs
--------------------
[ Tab from: http://www.guitartabs.cc/tabs/o/oar/about_mr_brown_tab.html ]
----------------------------
Verse:
F   G   C   Em  Am  F   G
1---3---x---x---x---1--------|
1---3---x---x---x---1--------|
2---4---x---9---x---2--------|
3---5---10--9---7---3---5----|
3---5---10--7---7---3---5----|
1---3---8-------5---1---3----|
-----------------------------|


----------------------------
Chorus:
F
G
C
Bm (x244xx)
Am
----------------------------

---------------------------
Questions/Comments:
joshpwc@yahoo.com
OARSA.ORG
---------------------------|
---------------------------|
Comments