Oag - 60s Tv Chords & Tabs

 

60s Tv Chords & Tabs

Oag Chords & Tabs

Version: 1 Type: Tab 0 ratings
1 star 2 stars 3 stars 4 stars 5 stars
comments

60s Tv Tab

   
60's TV by Oag
Tabbed By riff-raff
Any corrections please mail me.......riff_raff182@hotmail.com


|--------------|    |     |
|--------------|    |     |
|---------7----|    |  2x |
|---5-----7----|    |     | 
|---5-----5----|    |     |
|---3----------|    |     |

[ Tab from: http://www.guitartabs.cc/tabs/o/oag/60s_tv_tab.html ]
|---------------|
|---------------|
|---11----------|
|---11-----11---|
|---9------11---|
|----------9----|

|---------|
|---------|
|---------|
|---12----|
|---12----|
|---10----|



I dont know the rhythm part,so if u got some,share with me!
This is chord 4 this song


G,Dm,C(maybe),D

If this tab or chord is incorrect or missing something please mail me!
Comments