O Reilly Alex - Song Chords & Tabs

 

Song Chords & Tabs

O Reilly Alex Chords & Tabs

Version: 1 Type: Tab 0 ratings
1 star 2 stars 3 stars 4 stars 5 stars
comments

Song Tab

Here's some stuff I wrote. I can't really give you the strum pattern but just mess around with it. 
Its pretty much chords. Someone add words, a solo, whatever, e-mail me: axo151@hotmail.com
And keep in mind, I have only played for 2 months. Have fun.



Intro
[ Tab from: http://www.guitartabs.cc/tabs/o/o_reilly_alex/song_tab.html ]
E---2---3---2---3---2---3---2---3
B---2---3---2---3---2---3---2---3
G---2---0---2---0---2---0---2---0
D---2---0---2---0---2---0---2---0
A---0---0---0---0---0---0---0---0
E---0---3---0---3---0---3---0---3

Verses

E---3---2---0---3---2---0---3---2---0---0---2---0
B---3---3---0---3---3---0---3---3---0---1---3---0
G---0---2---2---0---2---2---0---2---2---0---2---1
D---0---0---2---0---0---2---0---0---2---2---0---2
A---0-------0---0-------0---0-------0---3-------2
E---3-------0---3-------0---3-------0-----------0
Comments