Nuviolet - Adriannas Song Chords & Tabs

 

Adriannas Song Chords & Tabs

Nuviolet Chords & Tabs

Version: 1 Type: Tab 0 ratings
1 star 2 stars 3 stars 4 stars 5 stars
comments

Adriannas Song Tab

Adrianna's Song by nuviolet
verses go like this
---------------------------------------------------------------------
---8---8---8---8---6---6---4---4-------------------------------------
--9---9---9---9---7---7---5---5--------------------------------------
-7---7---7---7---0---0---3---3---repeat------------------------------
---------------------------------------------------------------------
chorus(main cords)
-0------------------------------0----0--
-0------------------------------0----0--
-8------------------------------6----4--
-7------------------------------7----5--
-9------------------------------0----3--
-x------------------------------0----0--

Gtr 2
-----------------------0-----------------------------------------
-----------------------0-----------------------------------------
-----------------------4-----------------------------------------
-9-9-9-------5-5-5-5---5--9---5----------------------------------
-7-7-7-7-7-7-3-3-3-3---3--7-7-3----------------------------------
-------5-5-5-----------0----5------------------------------------

[ Tab from: http://www.guitartabs.cc/tabs/n/nuviolet/adriannas_song_tab.html ]
Comments