Nuthin2spezial - Where You Are Chords & Tabs

 

Where You Are Chords & Tabs

Nuthin2spezial Chords & Tabs

Version: 1 Type: Tab 0 ratings
1 star 2 stars 3 stars 4 stars 5 stars
comments

Where You Are Tab

E-----------------
B-----------------
G-----------------
D-----------------
A---10-10-10-7-7-7-5-5-5
E---12-12-12-8-8-8-7-7-7
do that a couple of times
[ Tab from: http://www.guitartabs.cc/tabs/n/nuthin2spezial/where_you_are_tab.html ]
Verse
Where you are is where ive already been
emptiness fills your void within
downward spiral cant feel the pain
when will it end from inside your brain.
escape if you can and fight till you die
for giving surrender will not satisfy
you must destroy what never can be
and for hating the world youre you'r own enemy
**chorus
E-----------------
B-----------------
G-----------------
D-----------------
A--3-3-5-5-2-2-3-3
E--1-1-3-3-0-0-1-1

bridge
kill the winner kill the loser
of this life you are the bruiser>>>
kill kill kill kill kiiiilllll

this parts very fast
E--
B--
G--
D--3-3-3-3-1-1-1-1-2-2-2-2-7-5-2
A--3-3-3-3-1-1-1-1-0-0-0-0-5-3-0
let last notes ring
oh i hope you enjoy because im the band leader and i wrote it
so dont email me and say that i did it wrong.
Enjoy if you have any questions or want to join the fan club (which is when 
we give you free shit) email me at Cunghole@hotmail.com
E--
Comments