Nural - Chasing You Chords & Tabs

 

Chasing You Chords & Tabs

Nural Chords & Tabs

Version: 1 Type: Tab 0 ratings
1 star 2 stars 3 stars 4 stars 5 stars
comments

Chasing You Tab

----------------------------------------------------------------------------
                        CHASING YOU - Nural
----------------------------------------------------------------------------
Hey guys Nural is an awesome new band that my friend told me about. Give all
the credit to Gary. Please buy Nural's new cd "The Weight of the World" its
very very good.

By:  Gary(garyhale@spu.edu)

DROP D TUNING!!!

~   - let ring out
h   - hammer on
p   - pull off
>   - strumming not defined
t   - tremolo picking
b   - bend
r   - release
v   - vibrato
/ \ - slide
x
x   - scratching
x
3x
3x  - mute after strumming
3x


GUITAR 1'S PARTS:
-----------------
Intro:
e|--------------------------------------------------------------------------|
B|--------------------------------------------------------------------------|
G|----------------------------------------------3-3-------------------------|
D|-1-1-1-x-1--1--5-5-x-5-5--1-1-1-x-1--1--3-3-x-3-3-------------------------|
A|-1-1-1-x-1--1--5-5-x-5-5--1-1-1-x-1--1--3-3-x-1-1-------------------------|
D|-1-1-1-x-1--1--5-5-x-5-5--1-1-1-x-1--1--3-3-x-----------------------------|

e|--------------------------------------------------------------------------|
B|--------------------------------------------------------------------------|
G|--------------------------------------------------------------------------|
D|-1-1-1-x-1--1--5-5-x-5-5--1-1-1-x-1--1--3-3-3-3-3-3x----------------------|
A|-1-1-1-x-1--1--5-5-x-5-5--1-1-1-x-1--1--3-3-3-3-3-3x----------------------|
D|-1-1-1-x-1--1--5-5-x-5-5--1-1-1-x-1--1--3-3-3-3-3-3x----------------------|

Verse:  (2x)
e|--------------------------------------------------------------------------|
B|-----6----6---6-----6-6-----6------6-----6---6-----6-6-----6------6-----6-|
G|---7----7---------7-------7------7-----7---------7-------7------7-----7---|
D|------------------------5----------------------8--------------------------|
A|-6----6-----6---8--------------6-----6-----6-----------8------6-----6-----|
D|--------------------------------------------------------------------------|

Verse Cont'd:
e|--------------------------------------------------------------------------|
B|---6-----6-6-----6--------------------------------------------------------|
G|-------7-------7-----------------------3-3--------------------------------|
D|-------------5-----------1-1-1-x-1--1--3-3--3-3---------------------------|
A|-6---8-------------------1-1-1-x-1--1--1-1--3-3---------------------------|
D|-------------------1/8\1-1-1-1-x-1--1-------3-3---------------------------|

Chorus:
e|--------------------------------------------------------------------------|
B|--------------------------------------------------------------------------|
G|-----------3>------------------3>---5>------------------------------------|
D|-5>---1>---3>---3>---5>---1>---3>---5>------------------------------------|
A|-5>---1>---1>---3>---5>---1>---1>---3>------------------------------------|
D|-5>---1>--------3>---5>---1>----------------------------------------------|

Break:
e|--------------------------------------------------------------------------|
B|-----6----6---6-----6-6-----6------6-----6---6-----6-6-----6--------------|
G|---7----7---------7-------7------7-----7---------7-------7----------------|
D|------------------------5------------------------------5------------------|
A|-6----6-----6---8--------------6-----6-----6---8--------------------------|
D|--------------------------------------------------------------------------|

2nd Verse:
e|--------------------------------------------------------------------------|
B|-----6----6---6-----6-6-----6------6-----6---6-----6-6-----6------6-----6-|
G|---7----7---------7-------7------7-----7---------7-------7------7-----7---|
D|------------------------5----------------------8--------------------------|
A|-6----6-----6---8--------------6-----6-----6-----------8------6-----6-----|
D|--------------------------------------------------------------------------|

2nd Verse Cont'd:
e|--------------------------------------------------------------------------|
B|---6-----6-6-----6--------------------------------------------------------|
G|-------7-------7------------------------3-3-------------------------------|
D|-------------5------------1-1-1-x-1--1--3-3--3-3--------------------------|
A|-6---8--------------------1-1-1-x-1--1--1-1--3-3--------------------------|
D|--------------------1/8\1-1-1-1-x-1--1-------3-3--------------------------|

2nd Verse Cont'd:
e|--------------------------------------------------------------------------|
B|-----6----6---6-----6-6-----6------6-----6---6-----6-6-----6------6-----6-|
G|---7----7---------7-------7------7-----7---------7-------7------7-----7---|
D|------------------------5----------------------8--------------------------|
A|-6----6-----6---8--------------6-----6-----6-----------8------6-----6-----|
D|--------------------------------------------------------------------------|

2nd Verse Cont'd:
e|--------------------------------------------------------------------------|
B|---6-----6-6-----6------6-----6---6-----6-6-----6-----6-----6---6-----6-6-|
G|-------7-------7------7-----7---------7-------7-----7-----7---------7-----|
D|-------------5------------------------------5-----------------------------|
A|-6---8--------------6-----6-----6---8-------------6-----6-----6---8-------|
D|--------------------------------------------------------------------------|

2nd Verse Cont'd:
e|--------------------------------------------------------------------------|
B|-----6--------------------------------------------------------------------|
G|---7----------------------------------------------------------------------|
D|-5------------------------------------------------------------------------|
A|--------------------------------------------------------------------------|
D|--------------------------------------------------------------------------|

Repeat Chorus:  (2x)
[ Tab from: http://www.guitartabs.cc/tabs/n/nural/chasing_you_tab.html ]
Bridge:
e|--------------------------------------------------------------------------|
B|--------------------------------------------------------------------------|
G|-3------------------------------------------------------------------------|
D|-3--0--1-1-1-1-1-1-1-1-5--3--1-1-1-1-1-1-1-1------------------------------|
A|-1--0--1-1-1-1-1-1-1-1-5--3--1-1-1-1-1-1-1-1------------------------------|
D|----0--1-1-1-1-1-1-1-1-5--3--1-1-1-1-1-1-1-1------------------------------|

Bridge Cont'd:
e|--------------------------------------------------------------------------|
B|--------------------------------------------------------------------------|
G|-3------------------------------------------------------------------------|
D|-3--0--1-1-1-1-1-1-1-1--x-5--x-3--x-1-1-1-1-1-1-1-1-----------------------|
A|-1--0--1-1-1-1-1-1-1-1--x-5--x-3--x-1-1-1-1-1-1-1-1-----------------------|
D|----0--1-1-1-1-1-1-1-1--x-5--x-3--x-1-1-1-1-1-1-1-1-----------------------|

Repeat Intro

Repeat Chorus:  (2x)

Ending:
e|--------------------------------------------------------------------------|
B|--------------------------------------------------------------------------|
G|--------------------------------------------------------------------------|
D|-5--3--1~-----------------------------------------------------------------|
A|-5--3--1~-----------------------------------------------------------------|
D|-5--3--1~-----------------------------------------------------------------|

GUITAR 2'S PARTS:
-----------------
Intro:
e|---------------------------------------------------------------------------|
B|------------------11v~--------------------13~b15r13--------------------13~-|
G|-10h12p10----10h12-------10h12p10----10h12------------10h12p10----10h12----|
D|----------12----------------------12---------------------------12----------|
A|---------------------------------------------------------------------------|
D|---------------------------------------------------------------------------|

Intro Cont'd:
e|----------13v\------------------------------------------------------------|
B|-11h13/15-----------------------------------------------------------------|
G|--------------------------------------------------------------------------|
D|--------------------------------------------------------------------------|
A|--------------------------------------------------------------------------|


Verse:  (Come in with booooom)
e|-----------------------------(phaser)-----------8t>-----------------------|
B|-------------------------------6t>---------------------6>-----------------|
G|---------------------3-3--------------------------------------------------|
D|-------1-1-1-x-1--1--3-3--3-3---------------------------------------------|
A|-------1-1-1-x-1--1--1-1--3-3---------------------------------------------|
D|-1/8\1-1-1-1-x-1--1-------3-3---------------------------------------------|

Verse Cont'd:
e|--------------------------------------------------------------------------|
B|--------------------------------------------------------------------------|
G|---------------------3-3--------------------------------------------------|
D|-------1-1-1-x-1--1--3-3--3-3---------------------------------------------|
A|-------1-1-1-x-1--1--1-1--3-3---------------------------------------------|
D|-1/8\1-1-1-1-x-1--1-------3-3---------------------------------------------|

Chorus:
e|--------------------------------------------------------------------------|
B|--------------------------------------------------------------------------|
G|-15>---12>---15>---14>---15>---12>---15>---17>----------------------------|
D|--x>----x>----x>----x>----x>----x>----x>----x>----------------------------|
A|-13>---10>---13>---12>---13>---10>---13>---15>----------------------------|
D|--------------------------------------------------------------------------|

Break:  (Only Guitar 1)

2nd Verse:  (Repeat Phaser Part for 1st time around)

2nd Verse Cont'd:  (3x)            (4th time)
e|--------------------------------|-----------------------------------------|
B|--------------------------------|-----------------------------------------|
G|--------------------------------|-----------------------------------------|
D|--------------------------------|-----------------------------------------|
A|1-1-1-1-1-1-1-1-3-3-3-3-5-5-5-5-|-1-1-1-1-1-1-1-1-3-3-3-3-3-3-3-3---------|
D|1-1-1-1-1-1-1-1-3-3-3-3-5-5-5-5-|-1-1-1-1-1-1-1-1-3-3-3-3-3-3-3-3---------|
  ...............................   .........................

Repeat Chorus:  (2x)

Bridge:
e|--------------------------------------------------------------------------|
B|--------------------------------------------------------------------------|
G|-3------------------------------------------------------------------------|
D|-3--0--1-1-1-1-1-1-1-1-5--3--1-1-1-1-1-1-1-1------------------------------|
A|-1--0--1-1-1-1-1-1-1-1-5--3--1-1-1-1-1-1-1-1------------------------------|
D|----0--1-1-1-1-1-1-1-1-5--3--1-1-1-1-1-1-1-1------------------------------|

Bridge Cont'd:
e|--------------------------------------------------------------------------|
B|--------------------------------------------------------------------------|
G|-3------------------------12----14----15~---------------------------------|
D|-3--0--1-1-1-1-1-1-1-1--x--x--x--x--x--x----------------------------------|
A|-1--0--1-1-1-1-1-1-1-1--x-10--x-12--x-13~---------------------------------|
D|----0--1-1-1-1-1-1-1-1--x-----x-----x-------------------------------------|

Repeat Intro

Repeat Chorus

Ending:
e|--------------------------------------------------------------------------|
B|--------------------------------------------------------------------------|
G|-15--14--12~--------------------------------------------------------------|
D|--x---x---x---------------------------------------------------------------|
A|-13--12--10~--------------------------------------------------------------|
D|--------------------------------------------------------------------------|

Nural rocks and that's why I could not perfectly tab out this song.
============================================================================
Comments