Number One Gun - These Things Chords & Tabs

 

These Things Chords & Tabs

Number One Gun Chords & Tabs

Version: 1 Type: Tab 0 ratings
1 star 2 stars 3 stars 4 stars 5 stars
comments

These Things Tab

this is only the first part of the song... i couldn't figure out the chords.


 "these things" by number one gun
this band is a christian - emo band, but if you weren't told that they were christian, 
wouldn't be able to tell.  hey, i didn't know until a friend told me.  these guys put on 
awsome show.

standard tuning

intro
e|------------3-----------------3-----3----------|
B|----3-0-0-0---0---3-0---3-0-3---3-3---3---3-0--|
G|-----0-----0----2-----2------0-----0----2------|
D|-----------------0-----0-----------------0-----|
A|---3-----3-----------------3-----3-------------|
E|---------------3-----3-----------------3-----3-|
[ Tab from: http://www.guitartabs.cc/tabs/n/number_one_gun/these_things_tab.html ]
verse x2
e|------3---------------------------------------------|
B|----3---3---3-----3-0---3-0---3-----3---0-3-0-0-3-0-|
G|-----0----0---0-2-----2-----0---0-0---0--0-----0----|
D|---------2-2-2---0-----0---2-2-2-2-2-2--------------|
A|---3-----------0-----0------------------------------|
E|---------------------------------------3-----3------|

bridge
e|----------------------------------------------------|
B|------3-0-0-3-0-0-3-0---3-0---3-0-0-3-0-0-----0-3-0-|
G|----0------0-----0----2-----0------0-----0-----0----|
D|-----0-----------------2-----0----------------------|
A|---3-----0-----------0-----3-----0------------------|
E|---------------3-----------------------3-----3------|

this is all i have for now.  pretty simple, but i thought it was a pretty song.  there 
no other tabs for it, so what the hey?  hope you enjoy!
Comments