Number One Fan - Dont Say Anything Chords & Tabs

 

Dont Say Anything Chords & Tabs

Number One Fan Chords & Tabs

Version: 1 Type: Tab 0 ratings
1 star 2 stars 3 stars 4 stars 5 stars
comments

Dont Say Anything Tab

   
I'm not going to write out the rhythm because it would be too many things to tab


INTRO
e|-------------------------------------------------------------------------|
B|-------------------------------------------------------------------------|
G|----9--13--14------------------------------------------------------------|
D|----9--13--14-----X2-----------------------------------------------------|
A|----7--11--12------------------------------------------------------------|
E|-------------------------------------------------------------------------|

BRIDGE to BEGINNING
e|------------|--------------------------------------------------------------|
B|------------|--------------------------------------------------------------|
G|--9-8----8--|--9--11-----8-------------------------------------------------|
D|--9-8-11-8--|--9--11--11-8-----this part X7--------------------------------|
A|--7-6-11-6--|--7---9--11-6-------------------------------------------------|
E|-------9----|---------9----------------------------------------------------|

VERSE
e|---------------------------------------------------------------------------|
B|---------------------------------------------------------------------------|
G|-------------4-9-----------------------------------------------------------|
D|---6--7--2---4-9----------X2-----------------------------------------------|
A|---6--7--2---2-7-----------------------------------------------------------|
E|---4--5--0-----------------------------------------------------------------|

CHORUS
e|--------------------|------|-------------------------------------------------|
B|--------------------|------|-------------------------------------------------|
G|---------9----------|------|--14-13-16--------------------------------------|
D|--6--7---9--9--X2---|---7--|--14-13-16---------------------------------------|
A|--6--7---7--9----- -|---7--|--12-11-14---------------------------------------|
E|--4--5------7-------|---5--|-------------------------------------------------|

BRIDGE THING AGAIN
e|------------|--------------------------------------------------------------|
B|------------|--------------------------------------------------------------|
G|--9-8----8--|--9--11-----8-------------------------------------------------|
D|--9-8-11-8--|--9--11--11-8-----this part X3--------------------------------|
A|--7-6-11-6--|--7---9--11-6-------------------------------------------------|
E|-------9----|---------9----------------------------------------------------|

VERSE
e|---------------------------------------------------------------------------|
B|---------------------------------------------------------------------------|
G|-------------4-9-----------------------------------------------------------|
D|---6--7--2---4-9----------X2-----------------------------------------------|
A|---6--7--2---2-7-----------------------------------------------------------|
E|---4--5--0-----------------------------------------------------------------|
[ Tab from: http://www.guitartabs.cc/tabs/n/number_one_fan/dont_say_anything_tab.html ]
CHORUS
e|--------------------|------|-------------------------------------------------|
B|--------------------|------|-------------------------------------------------|
G|---------9----------|------|--14-13--16--------------------------------------|
D|--6--7---9--9--X2---|---7--|--14-13-16---------------------------------------|
A|--6--7---7--9----- -|---7--|--12-11-14---------------------------------------|
E|--4--5------7-------|---5--|-------------------------------------------------|

(You gave me my choices... i'll choose wrong)
e|-----------------------|---------------------------------------------------|
B|-----------------------|---------------------------------------------------|
G|---6--8--9--11--13-----|---------------------------------------------------|
D|---6--8--9--11--13-----|--7------------------------------------------------|
A|---4--6--7--9---11-----|--7------------------------------------------------|
E|-----------------------|--5------------------------------------------------|

INSTRUMENTAL BRIDGE
e|-----------------|----------------------------------------------------------|
B|-----------------|----------------------------------------------------------|
G|---9---8--13-----|----9---8--14---------------------------------------------|
D|---9---8--13-----|----9---8--14---------------------------------------------|
A|---7---6--11-----|----7---6--12---------------------------------------------|
E|-----------------|----------------------------------------------------------|

ACOUSTIC PART (not sure about this...)
e|---2-----------------------------------------------------------------------|
B|---4-----------------------------------------------------------------------|
G|---4-----------------------------------------------------------------------|
D|---4---------hold this note------------------------------------------------|
A|---2-----------------------------------------------------------------------|
E|---------------------------------------------------------------------------|

(you reached the wrong decision..)  don't know this part

INSTRUMENTAL ending
e|-----------------------|-----------------------------------------------------|
B|-----------------------|-----------------------------------------------------|
G|---6--4-----4----------|-----------------------------------------------------|
D|---6--4--7--4----X4----|-----------------------------------------------------|
A|---4--2--7--2----------|-----------------------------------------------------|
E|--------- 5------------|-----------------------------------------------------|


e|-------------------------------------------------------------------------|
B|-------------------------------------------------------------------------|
G|---6--8--9--11--13-------------------------------------------------------|
D|---6--8--9--11--13------7-6------X2--------------------------------------|
A|---4--6--7--9---11------7-6----------------------------------------------|
E|------------------------5-4----------------------------------------------|

ENDING
e|---------------------------------------------------------------------------|
B|---------------------------------------------------------------------------|
G|-------9-------------------------------------------------------------------|
D|--2----9-------------------------------------------------------------------|
A|--2----7-------------------------------------------------------------------|
E|--0------------------------------------------------------------------------|


Thanks and if you have any questions email me Porsche56s@mac.com

~FOSTER


| /  slide up
| \  slide down
| h  hammer-on
| p  pull-off
| ~  vibrato
| +  harmonic
| x  Mute note
Comments