Nullset - This Aint California Chords & Tabs

 

This Aint California Chords & Tabs

Nullset Chords & Tabs

Version: 1 Type: Bass Tab 0 ratings
1 star 2 stars 3 stars 4 stars 5 stars
comments

This Aint California Bass Tab

Song: This Ain't California
Artist: Nullset
Transcribed by: Bar-Tone

Listen to the song for timing, this is i think one of the coolest songs for 
bass ever, so learn it and impress all your friends.Intro:

G:-------10--10-10-8-8-11-11-11/13/10--------10--10-10-8-----------------
D:-10-12-------------------------------10-12-------------10-8-6-6-6/8-8--
A:-----------------------------------------------------------------------
E:-----------------------------------------------------------------------

G:----------------------------------------------------
D:---------4-4-4/3-33----------6-6-6/10/8-------------
A:-8-8-6-6-------------8-8-6-6------------------------
E:----------------------------------------------------


verse:
[ Tab from: http://www.guitartabs.cc/tabs/n/nullset/this_aint_california_btab.html ]
G:----------------------------------------------------- (repeat)
D:-----------------8-----------------------------------
A:---------------8---10-8------------------------------
E:--8--8--8-8-11----------11-8-------------------------


pre-chorus/bridge:

G:-------------------------------------------------------------
D:-------------------------------------------------------------
A:-------------------------------------------------------------
E:-9-8-8-8-9-8-8-8--9-8-8-9-8----9-8-8-8-9-8-8-8--9-8-8-9-11---


chorus:

G:-------------------------------------------------------------------
D:-------------------------------------------------------------------
A:-------------------------------------------------------------------
E:-13-13-13-13/11--14-14-14-14/11--13-13-13-13/11--14-14-14-14/11----


                                    \m/
Comments