Nullset - Speechless Chords & Tabs

 

Speechless Chords & Tabs

Nullset Chords & Tabs

Version: 1 Type: Bass Tab 0 ratings
1 star 2 stars 3 stars 4 stars 5 stars
comments

Speechless Bass Tab

Song:Speechless
Artist: Nullset
Transcribed by: Bar-Tone


Intro:

G:--0-0-0-3-0-0-0-3-0-0-0-3-3-3-2-2---
D:------------------------------------
A:------------------------------------
E:-3-3-3-3-3-3-3-3-3-3-3-3-3-3-3-3----

Verse:

G:-------------------------------------------------------
D:-------------------------------------------------------
A:-------------------------------------------------------
E:--3-3-0/1-3---3-3-0/1-3---3-3-0/1-3---3-6-3-6-3-5-3-5--  play this twice

G:----------------------------------------------------
D:----------------------------------------------------
A:----------------------------------------------------
E:--3-3-0/1-3-6-8-3-3-0/1-3-6-8-3-3-0/1-3-6-8-9-9-8-8-


Chorus:
[ Tab from: http://www.guitartabs.cc/tabs/n/nullset/speechless_btab.html ]
G:--------------------------------------------------)
D:---------------------------------------5-3--------)
A:--3-5--3-5-3-5-3-5-3-5--3-5--3-5-3-5-3------------)
E:--------------------------------------------------)
                                                    )> play this twice
G:--------------------------------------------------)
D:--------------------------------------------------)
A:--3-5--3-5-3-5-3-5-3-5--3-3---1-1-----------------)
E:--------------------------------------------------)


bridge:

G:----------------------------------------
D:----------------------------------------          play this, yep, twice
A:----------------------------------------
E:-1-1-0-0-1-1-0-0-1-1-0-0-10-10-10-10----


                                      \m/
Comments