Nullset - Six Point 5 Chords & Tabs

 

Six Point 5 Chords & Tabs

Nullset Chords & Tabs

Version: 1 Type: Tab 0 ratings
1 star 2 stars 3 stars 4 stars 5 stars
comments

Six Point 5 Tab

Song: six point 5
artist nullset (formorly known as gangsta bitch barbie)
transcribed by: Bar-tone

Listen to the song for timing, there are two versions of it however,
 one is off of their last disc "nullset", but this is the version from
 their first CD "this is not a test". But they are alot alike, so if you
 know one you can figure out the other.

key:
x=palm mute
>after a note means hold the note
^means bend

drop d tuning


Intro and verse:
 There is no tab for this, the guitarist just solos around fourth string, 
8th fret but it might be something like this

e:------------------------------------------------------------------------
B:------------------------------------------------------------------------
G:--------------------------------------8---10-8---8-10-8----8-8-10>^-----
D:-8>^----10-8----8-10-8----8-8-10>^--8---8------10-------10--------------
A:-------------10--------10-----------------------------------------------
D:------------------------------------------------------------------------

e:------------------------------------------------------------------------
B:------------------------------------------------------------------------
G:--------9/10/9----9/10/9---------9/10/9---9/10-12-10-9/10/9/10/9/10/9---
D:-8>^----------10--------10--8>^--------10-------------------------------
A:------------------------------------------------------------------------
D:------------------------------------------------------------------------

Chorus riff #1
[ Tab from: http://www.guitartabs.cc/tabs/n/nullset/six_point_5_tab.html ]
e:----------------------------------------------------
B:----------------------------------------------------
G:----------------------------------------------------
D:10-10-13-13-11-11-11-11-10-10-13-13-11-11-11-11-----
A:10-10-13-13-11-11-11-11-10-10-13-13-11-11-11-11-----
D:10-10-13-13-11-11-11-11-10-10-13-13-11-11-11-11-----

e:----------------------------------------------------------
B:----------------------------------------------------------
G:--8--8----------------------------------------------------
D:--8--8-15-15-13-12-13/13/13-12-10-10-13-13-11-11-11-11----
A:-10-10-15-15-13-12-13/13/13-12-10-10-13-13-11-11-11-11----
D:-------15-15-13-12-13/13/13-12-10-10-13-13-11-11-11-11----


chorus riff #2

e:----------------------------------------------------
B:----------------------------------------------------
G:--------------------10/12---------------------10----
D:----------------------------------------------------
A:-10-10--8/10--10-10--8/10--10-10--8/10--10-10--8----
D:-10-10--8/10--10-10--------10-10--8/10--10-10-------


solo:

e:----------8-----------------------8---------------
B:-------8-8--------8-10---------8-8----------------
G:-----9----------9-----10-----9----------9/10/9----
D:---8----------8------------8----------8-------10--
A:-8----------8------------8----------8-------------
D:--------------------------------------------------

outro:

e:------------------------------------------------------
B:------------------------------------------------------
G:-----------10-----------10------------------10/12-----
D:------------------------------------------------------
A:-10-10-xxxx8--10-10-xxxx8-10-10-xxxx8-10-10--8/10-----
D:-10-10-xxxx---10-10-xxxx--10-10-xxxx--10-10-----------


                               \m/
Comments