Nullset - Kingpin Chords & Tabs

 

Kingpin Chords & Tabs

Nullset Chords & Tabs

Version: 1 Type: Tab 0 ratings
1 star 2 stars 3 stars 4 stars 5 stars
comments

Kingpin Tab

Song:Kingpin
Artist: Nullset (formorly known as gangsta bitch barbie)
Transcribed by: Bar-Tone

listen to song for timing.

verse/intro:

e:----------------------------------------------------------------------
B:----------------------------------------------------------------------
G:----------------------------------------------------------------------
D:-----6---------5-6------6--------5-6-------6--------5-6-------6-----5-
A:--5---------5------6-5--------5------6--5--------5------6--5-----5----
E:----------------------------------------------------------------------

Verse:

e:-------------------------------------------------------------
B:-------------------------------------------------------------
G:-------------------------------------------------------------
D:---------------------------------------------------------8^--
A:1010--1010--1010--1010--1010--1010--1010--1010--1010--10-----
E:-8-8---8-8---8-8---8-8---8-8---8-8---8-8---8-8---8-8---8-6^--  play *2
[ Tab from: http://www.guitartabs.cc/tabs/n/nullset/kingpin_tab.html ]
e:-----------------------------------------------------------
B:-----------------------------------------------------------
G:-----------------------------------------------------------
D:-------------------------8^---------------------------8^---
A:1010--1010--1010--1010-------1010--1010--1010--1010--------
E:-8-8---8-8---8-8---8-8---6^---8-8---8-8---8-8---8-8---6^---   play *2


Bridge:

e:---------------------------------------------------------------------------
B:---------------------------------------------------------------------------
G:---------------------------------------------------------------------------
D:11-11--11111111-13-13-13-13-15-15-17---------------------------------------
A:------------------------------------1010--1010--1010--1010---8^1010--1010--
E:9---9---9-9-9-9-11-11-11-11-13-13-15-8-8---8-8---8-8---8-8---6^-8-8---8-8--

e:------------------------------------------------------------------------
B:------------------------------------------------------------------------
G:------------------------------------------------------------------------
D:--------------11-11---11111111-13-13-13-13-15-15-17-13-13-13-13-15-15-17-
A:1010--1010--8^-----------------------------------------------------------
E:8-8---8-8---6^-9---9---9-9-9-9-11-11-11-11-13-13-15-11-11-11-11-13-13-15-


                             \m/
Comments