Nugent Ted - Wango Tango Chords & Tabs

 

Wango Tango Chords & Tabs

Nugent Ted Chords & Tabs

Version: 1 Type: Tab 1 rating
1 star 2 stars 3 stars 4 stars 5 stars
comments

Wango Tango Tab

Ted Nugent
Wango Tango


Opening Riff/Verses
[ Tab from: http://www.guitartabs.cc/tabs/n/nugent_ted/wango_tango_tab.html ]
E|----------------------------
B|----------------------------
G|-2-----2------2-------------
D|-2-----2------2-------------
A|-0-----0------0-------------
E|----3------3-----3----------



Chorus

E|---------------------------
B|-------------3-3-----------
G|-2-2---------2-2-----------
D|-2-2---------0-0-----------
A|-0-0-------------3-2-0-----
E|-----3-2-0-----------------

(Listen to recording for timings)
Comments