Nugent Ted - Stranglehold Main Riffs Correct Chords & Tabs

 

Stranglehold Main Riffs Correct Chords & Tabs

Nugent Ted Chords & Tabs

Version: 1 Type: Tab 3 ratings
1 star 2 stars 3 stars 4 stars 5 stars
comments

Stranglehold Main Riffs Correct Tab

Title: Stranglehold
Band/Artist: Ted Nugent
Album: The Best of Ted Nugent: Great Gonzos!
Parts: Intro, Main riffs
Missing: Solo
My email: diverdown@verizon.net

LEGEND: ^ = hammer-on/pull-off
        / = slide to
       pm = palm mute



Intro (x2)

         |pm|     |pm|    |pm|               
e|--------------------------------------------------------|
B|--------------------------------------------------------|
G|----------------------------------5--5-7--5^7^5---------|
D|---5^7-------7-------7-------7----5--5----5-------------|        
A|---0-0--0-0--0--0-0--0--0-0--0--0-----------------------|
E|--------------------------------------------------------|
     |pm|    |pm|    |pm|                                 
e|--------------------------------------------------------|
B|--------------------------------------------------------|
G|--------------------------------------------------------|
D|--------7-------7-------7-----5/7-----------------------|
A|---0-0--0--0-0--0--0-0--0--0--5/7-----------------------|
E|--------------------------------------------------------|
[ Tab from: http://www.guitartabs.cc/tabs/n/nugent_ted/stranglehold_main_riffs_correct_tab.html ]
         |pm|     |pm|    |pm|               
e|--------------------------------------------------------|
B|--------------------------------------------------------|
G|----------------------------------5--5-7--5^7^5---------|
D|---5^7-------7-------7-------7----5--5----5-------------|        
A|---0-0--0-0--0--0-0--0--0-0--0--0-----------------------|
E|--------------------------------------------------------|

     |pm|    |pm|    |pm|                        
e|--------------------------------------------------------|
B|--------------------------------------------------------|
G|------------------------------12/14---------------------|
D|--------7-------7-------7-----12/14---------------------|
A|---0-0--0--0-0--0--0-0--0--0----------------------------|
E|--------------------------------------------------------|

Verses (x4)
    
    Here I come again now ba-by             

e|--------------------------------------------------------|
B|--------------------------------------------------------|
G|------------------------5/7-----------------------------|
D|---5^7--5^7--5^7--5^7---5/7-----------------------------|
A|---0----0----0----0---0---------------------------------|
E|--------------------------------------------------------|

    Like a dog in heat

e|--------------------------------------------------------|
B|--------------------------------------------------------|
G|--------------------------------------------------------|
D|---5^7--5^7--5^7--5^7----5/7----------------------------|
A|---0----0----0----0---0--5/7----------------------------|
E|--------------------------------------------------------|

After that it goes into a long Nugified solo.  E-mail me (diverdown@verizon.net) for correction/suggestions/comments/whatever.
Listen to Ted - It'll do ya good.  He's one of the greatest guitarists ever.
Comments