Nugent Ted - Sasha Chords & Tabs

 

Sasha Chords & Tabs

Nugent Ted Chords & Tabs

Version: 1 Type: Tab 0 ratings
1 star 2 stars 3 stars 4 stars 5 stars
comments

Sasha Tab

   
Sasha - Ted Nugent
Album: Tooth, Fang, & Claw
Tuning: 1/2 Step Down
Tabbed by Jeff Ross

This is one of Ted Nugent's only acoustic songs. It's about his
daughter, Sasha. I learned this song by ear because no one 
bothered to figure it out. Be sure to tune your guitar down a 
half step.


Intro/Verse:
------------

           E                     E
Eb|-----|---------------------|----------------------------|
Bb|-----|---------------------|----------------------------|
Gb|-----|---------------------|----------------------------|
Db|-----|-----2----2/4--4-----|--6^7--6-----6^7--6---------|
Ab|-----|---------------------|----------7----------7------|
Eb|-0-0-|--0----0----------0--|------------------------0-0-|

     E                      E           D
Eb|----------------------|----------------------------|
Bb|----------------------|----------------------------|
Gb|----------------------|----------------------------|
Db|-----2-----2/4--4-----|--6^7--6------4--4----------|
Ab|----------------------|----------7---5--5------0^5-|
Eb|--0-----0----------0--|--------------------0^5-----|
[ Tab from: http://www.guitartabs.cc/tabs/n/nugent_ted/sasha_tab.html ]
     E                      E          
Eb|----------------------|----------------------------|
Bb|----------------------|----------------------------|
Gb|----------------------|----------------------------|
Db|-----2-----2/4--4-----|--6^7--6-----6^7--6---------|
Ab|----------------------|----------7----------7------|
Eb|--0-----0----------0--|------------------------0-0-|

     E                      D         E
Eb|----------------------|----------------------------|
Bb|----------------------|----------------------------|
Gb|----------------------|----------------------------|
Db|-----2-----2/4--4-----|--4--5--4---6--6------------|
Ab|----------------------|--5--5--5---7--7-------0^5--|
Eb|--0-----0----------0--|------------------0^5-------|


Play the into for the verse for verse 1 and 2, then play just 
the chords.

When strumming the verse, imcorperate some of the intro variations:
For example:

     E
Eb|-----------------|------------------------|
Bb|-----------------|------------------------|
Gb|--1--1---1-1--1--|--1h2--1-----1h2--1-----|
Db|--2--2---2h4--4--|--2-2--2--2--2-2--2--2--|
Ab|--2--2---2-2--2--|--2-2--2--2--2-2--2--2--|
Eb|--0--0---0-0--0--|--0-0--0--0--0-0--0--0--|

For the D, either use a normal D chord, or use (x540xx) to keep
the same mellow flavor as the intro.



Chorus:
-------
D             E          D            E
Smile, Sasha, smile. You make my life worthwhile.
D             E      A    B
Smile, Sasha, smile. Ahh. Ahh.


Use the same type of chords as the intro and verse to keep the
mellow sound throughout the entire song.

I'm sure you can figure out the rest, it's not difficult.
Comments