Nugent Ted - Kiss My Ass Chords & Tabs

 

Kiss My Ass Chords & Tabs

Nugent Ted Chords & Tabs

Version: 1 Type: Bass Tab 0 ratings
1 star 2 stars 3 stars 4 stars 5 stars
comments

Kiss My Ass Bass Tab

                              Kiss My Ass
By:  Ted Nugent
Album:  Spirit of the Wild
Tabbed by:
 Justin Mackovyak--Jmm@csrlink.net
These are the key notes for the bassline.  All you need to do is get the timing.


    Intro                                   Verses                      
G---|-----|-----|-----|-----|-----|-----||-----|-----|-----|-----|------
D---|-----|-----|-----|-----|-----|-----||-----|-----|-----|-----|------
A---|--0--|--7--|--0--|--7--|--7--|--7--||--5--|--0--|--5--|--0--|------
E---|-----|-----|-----|-----|-----|-----||-----|-----|-----|-----|------
                                                                        
[ Tab from: http://www.guitartabs.cc/tabs/n/nugent_ted/kiss_my_ass_btab.html ]
                                                                        
G------|-----|-----|-----|-----|-----|-----||---------------------------
D------|-----|-----|-----|-----|-----|-----||---------------------------
A---5--|--7--|--0--|-----|--5--|--7--|--0--||---------------------------
E------|-----|-----|--2--|-----|-----|-----||---------------------------
                                                                        

    Fill 1, towards the end                                             
G------|-----|-----|-----|-----|-----|-----|-----|-----||---------------
D------|-----|-----|-----|-----|-----|-----|-----|-----||---------------
A---0--|--7--|--5--|--7--|--0--|-----|--5--|--7--|--0--||---------------
E------|-----|-----|-----|-----|--2--|-----|-----|-----||---------------
                                                                        



If anyone has any other Nugent basslines or Chord Progressions, Please
send them to me.  Thanks, Justin.

Jmm@csrlink.net


". . . In the wind, He's still alive."

Comments