Nugent Ted - Fred Bear Chords & Tabs

 

Fred Bear Chords & Tabs

Nugent Ted Chords & Tabs

Version: 1 Type: Tab 0 ratings
1 star 2 stars 3 stars 4 stars 5 stars
comments

Fred Bear Tab

   
#----------------------------------PLEASE NOTE---------------------------------#
#This file is the author's own work and represents their interpretation of the #
#song. You may only use this file for private study, scholarship, or research. #
#------------------------------------------------------------------------------#

Artist: Ted Nugent
Song: Fred Bear
Tabbed by: John Leadman



The intro; Part 2 in this song for me, is kinda tricky to
play the way Ted does it. He picks the  A string with a pick
and the B and high E strings with his middle finger. I found it
easier to use my thumb to pick the  A string instead of
a pick. The problem with this is that the verses and chorus
requires strumming with a pick and I end up fumbling for my pick
when I need it to play them. Try to learn it using the pick
method if you can.


All of the notes in the second part of the intro and verses
are played very quickly and each note that
is played is quickly deadend by the next note played. The
only notes that are to ring are 3 notes in the second part of
the intro that I will identify with the letters (ri) after
each note. Also, all of Intro;Part 1 rings.

I'm going to tab the intro,verses,chorus,lead rhythm chords and
end of the song where Fred talks. I've never really tried to learn
the leads but I think they're played in D minor Pentatonic or
mabye D of Ted's world I'm not sure. Help me out if you know it,
I have alot of stupid attacks. Walk soft and shoot hard.


Intro;Part 1

   Am   F      G             Am    F      G
E-------------------------------------------------------|
B----1-----1---0---0-1-3-1-0----1-----1---0---0-1-3-1-0-|
G---2-2---2-2------------------2-----2------------------|
D-------3--------------------------3--------------------|
A-0--------------------------0--------------------------|
E-------------------------------------------------------|

Intro;Part 2-Also used between verses and verse 4.
   Am              F               G
E---------------------------------------------------------------|
B-1-1-1-1-1-1-3-1--1-1-1-1-1-1-3-1--0-0-0-0-0-0-0--0-0-1-3-3-1-0|
G---------------------------------------------------------------|
D---------------------------------------------------------------|
A-0-0-0-0-0-0-0-0--3-3-3-3-3-3-3-3--2-2-2-2-2-2-2--2-2-2-2-2-2-2|
E---------------------------------------------------------------|

  Am               F                G
E-0(ri)------------1(ri)------------3(ri)-----------------------|
B-1-1-1-1-1-1-3-1--1-1-1-1-1-1-3-1--0-0-0-0-0-0-0--0-0-1-3-3-1-0|
G---------------------------------------------------------------|
D---------------------------------------------------------------|
A-0-0-0-0-0-0-0-0--3-3-3-3-3-3-3-3--2-2-2-2-2-2-2--2-2-2-2-2-2-2|
E---------------------------------------------------------------|



This next part is the music during the verses. All strings are
muted with the right hand at the bridge of the guitar except
notes followed by (ri).


Part 3 All verses except verse 4.


  Am              F               G
E----------------------------------------------------------------|
B----------------------------------------------------------------|
G-2-2-2-2-2-2-2-0------------------------------------------------|
D-2-2-2-2-2-2-2-0-3-3-3-3-3-3-3-3-5-5-5-5-5-5-5-5-5-5-5-5-5-5-5-5|
A-0-0-0-0-0-0-0-0-3-3-3-3-3-3-3-3-5-5-5-5-5-5-5-5-5-5-5-5-5-5-5-5|
E-----------------1-1-1-1-1-1-1-1-3-3-3-3-3-3-3-3-3-3-3-3-3-3-3-3|



  Am              F               G
E----------------------------------------------------------------|
B----------------------------------------------------------------|
G-2-2-2-2-2-2-2-0------------------------------------------------|
D-2-2-2-2-2-2-2-0-3-3-3-3-3-3-3-3-5-5-5-5-5-5-5-5-3/-5-5-5-5-5-5-|
A-0-0-0-0-0-0-0-0-3-3-3-3-3-3-3-3-5-5-5-5-5-5-5-5-3/-5-5-5-5-5-5-|
E-----------------1-1-1-1-1-1-1-1-3-3-3-3-3-3-3-3-1/-3-3-3-3-3-3-|


[ Tab from: http://www.guitartabs.cc/tabs/n/nugent_ted/fred_bear_tab.html ]
  Am              F               G
E-------------------------------------------------3(ri)----------|
B----------------------------------------------------------------|
G-2-2-2-2-2-2-2-0------------------------------------------------|
D-2-2-2-2-2-2-2-0-3-3-3-3-3-3-3-3-5-5-5-5-5-5-5-5-5-5-5-5-5-5-5-5|
A-0-0-0-0-0-0-0-0-3-3-3-3-3-3-3-3-5-5-5-5-5-5-5-5-5-5-5-5-5-5-5-5|
E-----------------1-1-1-1-1-1-1-1-3-3-3-3-3-3-3-3-3-3-3-3-3-3-3-3|



  Am              F               G
E----------------------------------------------------------------|
B----------------------------------------------------------------|
G-2-2-2-2-2-2-2-0------------------------------------------------|
D-2-2-2-2-2-2-2-0-3-3-3-3-3-3-3-3-5-5-5-5-5-5-5-5-5-5-5-5-5-5-5-5|
A-0-0-0-0-0-0-0-0-3-3-3-3-3-3-3-3-5-5-5-5-5-5-5-5-5-5-5-5-5-5-5-5|
E-----------------1-1-1-1-1-1-1-1-3-3-3-3-3-3-3-3-3-3-3-3-3-3-3-3|



Part 4;Chorus-Strum freely and let ring-Another guitar plays
              part 3 at same time.Play 4 times.

   Am         F           G
E-0-0-0-0-0-0-1-1-1-1-1-0-3-3-3-3-3-3-3-3-3-3-0-|
B-1-1-1-1-1-0-1-1-1-1-1-0-0-0-0-0-0-0-0-0-0-0-0-|
G-2-2-2-2-2-0-2-2-2-2-2-0-0-0-0-0-0-0-0-0-0-0-0-|
D-2-2-2-2-2-0-3-3-3-3-3-0-0-0-0-0-0-0-0-0-0-0-0-|
A-0-0-0-0-0-0-3-3-3-3-3-0-2-2-2-2-2-2-2-2-2-2-0-|
E-------------------------3-3-3-3-3-3-3-3-3-3-0-|



This next part is the rhythm behind the lead.

Part 5;Play 4 times.On the 4th time sub.the last D chord with an A

  D               C               G               D(A 4th time)
E----------------------------------------------------------------|
B----------------------------------------------------------------|
G----------------------------------------------------------------|
D-7-7-7-7-7-7-7-7-5-5-5-5-5-5-5-5-5-5-5-5-5-5-5-5-7-7-7-7-7-7-7-7|
A-5-5-5-5-5-5-5-5-3-3-3-3-3-3-3-3-5-5-5-5-5-5-5-5-5-5-5-5-5-5-5-5|
E-5-5-5-5-5-5-5-5-3-3-3-3-3-3-3-3-3-3-3-3-3-3-3-3-5-5-5-5-5-5-5-5|


Part 6
This last part is the music during the end of the song where
Fred talks.



E-----------------------------0(ri)|
B-1-1-1-1-1-1-1-1-3-3-3-3-3-3---3--|
G----------------------------------|
D----------------------------------|
A-0-0-0-0-0-0-0-0-0-0-0-0-0-0-0-0--|
E----------------------------------|




====================================================================================================================


Artist: Ted Nugent
Song: Fred Bear(songs of the wild)
Tabbed by: John leadman


here is another version of the song

Riff 1A-(Intro)
                                   PM---------->|
|-------------------------------------------|
|------0-1-3-----1-3-0--0-0-1-3-3-1-0-------|
|*--2----------2---------------------------*|
|*--2----------2---------------------------*|
|-------------------------------------------|
|-------------------------------------------|

Riff 1B-(Post Intro)
           PM          PM                  PM         PM       PM--------->|
|--------------------------------------------------------------------------|
|---1--1-1--1--1-1--3-0--1--1-1--1--1-1--3-0--0-0-0-0-0-0-0--0-0-1-3-3-1-0-|
|*------------------------------------------------------------------------*|
|*------------------------------------------------------------------------*|
|--------------------------------------------------------------------------|
|--------------------------------------------------------------------------|

Riff 2- (Verse)
   PM--------------------------------------------------------------------->|
|--------------------------------------------------------------------------|
|--------------------------------------------------------------------------|
|*------------------------------------------------------------------------*|
|*------------------------------------------------------------------------*|
|--7-7-7-7-7-7-7-7---3-3-3-3-3-3-3-3---5-5-5-5-5-5-5-5---5-5-5-5-5-5-5-5---|
|--5-5-5-5-5-5-5-5---1-1-1-1-1-1-1-1---3-3-3-3-3-3-3-3---3-3-3-3-3-3-3-3---|

Riff 3- (Chorus)

|---------------------------------------------------------------------------|
|---------------------------------------------------------------------------|
|*--------------------------------------------------------------------------|
|*-7--7-7-7-7-7-7-7---3--3-3-3-3-3-3-3---5--5-5-5-5-5-5-5---5-5-5-5-5-5-5-5-|
|--7--7-7-7-7-7-7-7---3--3-3-3-3-3-3-3---5--5-5-5-5-5-5-5---5-5-5-5-5-5-5-5-|
|--5--5-5-5-5-5-5-5---1--1-1-1-1-1-1-1---3--3-3-3-3-3-3-3---3-3-3-3-3-3-3-3-|

Riff 4

|--------------------------------------------------|
|----1--1-1---1--1-1--1-1---3--3-3---3--3-3--3-3---|
|*------------------------------------------------*|
|*------------------------------------------------*|
|--------------------------------------------------|
|--------------------------------------------------|

Comments