Nugent Ted - Dog Eat Dog Chords & Tabs

 

Dog Eat Dog Chords & Tabs

Nugent Ted Chords & Tabs

Version: 1 Type: Tab 1 rating
1 star 2 stars 3 stars 4 stars 5 stars
comments

Dog Eat Dog Tab

                             Ted Nugent - Dog Eat Dog                                   
                                    by digiti


LEAD GUITAR:
                                                                       
E||------|------------------|------------------|-------------------------|
B||------|------------------|------------------|-------------------------|
G||------|------------------|------------------|--------------7----------|
D||------|------------------|------------------|--5h7---------7----------|
A||------|------------------|------------------|------0-0-0-0------------|
E||------|------------------|------------------|-------------------------|


                                                                               
-------------------------|--------------------------------|-------------------|
-------------------------|--------------------------------|-------------------|
--------------5----------|--------------7------5------2-2-|--2----------------|
--5h7---------5----------|--5h7---------7------5------2-2-|--2----------------|
------0-0-0-0------------|------0-0-0-0----0-0----0-0-----|--0----------------|
-------------------------|--------------------------------|-------------------|


                                                    
-------------------------|-------------------------|
-------------------------|-------------------------|
--------------7----------|--------------5----------|
--5h7---------7----------|--5h7---------5----------|
------0-0-0-0------------|------0-0-0-0------------|
-------------------------|-------------------------|


                                                                               
--------------------------------|-------------------|-------------------------|
--------------------------------|-------------------|-------------------------|
--------------7------5------2-2-|--2----------------|--------------7----------|
--5h7---------7------5------2-2-|--2----------------|--5h7---------7----------|
------0-0-0-0----0-0----0-0-----|--0----------------|------0-0-0-0------------|
--------------------------------|-------------------|-------------------------|


                                                           
-------------------------|--------------------------------|
-------------------------|--------------------------------|
--------------5----------|--------------7------5------14--|
--5h7---------5----------|--5h7---------7------5------14--|
------0-0-0-0------------|------0-0-0-0----0-0----0-0-----|
-------------------------|--------------------------------|


                                                                           
----------------------|-------------------------|-------------------------|
--14------------14/---|-------------------------|-------------------------|
--14------------14/---|--------------7----------|--------------5----------|
--14------------14/---|--5h7---------7----------|--5h7---------5----------|
----------------------|------0-0-0-0------------|------0-0-0-0------------|
----------------------|-------------------------|-------------------------|


                                                        
--------------------------------|----------------------|
--------------------------------|--14------------14/---|
--------------7------5------14--|--14------------14/---|
--5h7---------7------5------14--|--14------------14/---|
------0-0-0-0----0-0----0-0-----|----------------------|
--------------------------------|----------------------|


                                                                           
------------------------------------|------------------|------------------|
------------------------------------|------------------|------------------|
------------------------------------|------------------|------------------|
------------------------------------|------------------|------------------|
--12-12-12----12-12-12----12-12-12--|------------------|------------------|
------------------------------------|------------------|------------------|


                                                               
-------------------|----------------------|-------------------|
-------------------|----------------------|-------------------|
-------------------|----------------------|-------------------|
-------------------|-------5--------------|-------------------|
-------------------|--------------6----6--|--7/---------------|
----------------3--|----3---------4----4--|--5/---------------|


                                                                   
------------------|-----------------------|-----------------------|
------------------|--5----3----3--1-------|-------------8~--------|
------------------|--5----4----3--2-------|-------------7~--------|
------------------|--5----5----3--3-------|-------------6~--------|
------------------|-----------------------|-------------7~-----7--|
------------------|--------------------0--|----0--0--0---------0--|


                                                              
-----------------------|------------------|------------------|
-------------8----8/---|------------------|------------------|
-------------7----7/---|------------------|------------------|
-------------6----6/---|------------------|------------------|
-------------7----7/---|------------------|------------------|
----0--0--0------------|------------------|------------------|


                                                               
-------------------|----------------------|-------------------|
-------------------|----------------------|-------------------|
-------------------|----------------------|-------------------|
-------------------|-------5--------------|-------------------|
-------------------|--------------6----6--|--7/---------------|
----------------3--|----3---------4----4--|--5/---------------|


                                                                   
------------------|-----------------------|-----------------------|
------------------|--5----3----3--1-------|-------------8~--------|
------------------|--5----4----3--2-------|-------------7~--------|
------------------|--5----5----3--3-------|-------------6~--------|
------------------|-----------------------|-------------7~-----7--|
------------------|--------------------0--|----0--0--0---------0--|


                                                                
-----------------------|------------------|--------------------|
-------------8----8/---|------------------|----------------14--|
-------------7----7/---|------------------|----------------14--|
-------------6----6/---|------------------|----------------14--|
-------------7----7/---|------------------|--------------------|
----0--0--0------------|------------------|--------------------|


                                                               
--------------------|--------------------|--------------------|
------14/-----------|----------------14--|------14/-----------|
------14/-----------|----------------14--|------14/-----------|
------14/-----------|----------------14--|------14/-----------|
--------------------|--------------------|--------------------|
--------------------|--------------------|--------------------|


                                                                   
------------------|-----------------------|-----------------------|
------------------|--5----3----3--1-------|-------------8~--------|
------------------|--5----4----3--2-------|-------------7~--------|
------------------|--5----5----3--3-------|-------------6~--------|
------------------|-----------------------|-------------7~-----7--|
------------------|--------------------0--|----0--0--0---------0--|


                                                              
-----------------------|------------------|------------------|
-------------8----8/---|------------------|------------------|
-------------7----7/---|------------------|------------------|
-------------6----6/---|------------------|------------------|
-------------7----7/---|------------------|------------------|
----0--0--0------------|------------------|------------------|


                                                               
-------------------|----------------------|-------------------|
-------------------|----------------------|-------------------|
-------------------|----------------------|-------------------|
-------------------|-------5--------------|-------------------|
-------------------|--------------6----6--|--7/---------------|
----------------3--|----3---------4----4--|--5/---------------|


                                                                   
------------------|-----------------------|-----------------------|
------------------|--5----3----3--1-------|-------------8~--------|
------------------|--5----4----3--2-------|-------------7~--------|
------------------|--5----5----3--3-------|-------------6~--------|
------------------|-----------------------|-------------7~-----7--|
------------------|--------------------0--|----0--0--0---------0--|


                                                                
-----------------------|------------------|--------------------|
-------------8----8/---|------------------|----------------14--|
-------------7----7/---|------------------|----------------14--|
-------------6----6/---|------------------|----------------14--|
-------------7----7/---|------------------|--------------------|
----0--0--0------------|------------------|--------------------|


                                                               
--------------------|---------------------|-------------------|
------14/-----------|---------------------|-------------------|
------14/-----------|---------------------|-------------------|
------14/-----------|---------------------|-------------------|
--------------------|------------7--7--7--|--7/---------------|
--------------------|------------5--5--5--|--5/---------------|


                                                                   
------------------|-----------------------|-----------------------|
------------------|--5----3----3--1-------|-------------8~--------|
------------------|--5----4----3--2-------|-------------7~--------|
------------------|--5----5----3--3-------|-------------6~--------|
------------------|-----------------------|-------------7~-----7--|
------------------|--------------------0--|----0--0--0---------0--|


                                                              
-----------------------|------------------|------------------|
-------------17~-------|------------------|------------------|
-------------19~-------|------------------|------------------|
-----------------------|------------------|------------------|
-----------------------|------------------|------------------|
----0--0--0------------|------------------|------------------|


                                                                       
------------------|------------------------|--------------------5h-7h-|
------------------|------------------5h-7h-|--8--------8/-3/-8--------|
------------------|------------2/-7--------|--------------------------|
------------------|------------------------|--------------------------|
------------------|------------------------|--------------------------|
------------------|------------------------|--------------------------|


                                                         
--8-----------------5h7h|--8---------7------------------|
-------------5h7h8------|-----5h7h8-----5h7----5------5-|
------------------------|-------------------7-----7h8---|
------------------------|-------------------------------|
------------------------|-------------------------------|
------------------------|-------------------------------|


                                                                                
---------------------------|------------10--------|--10--12------8----8h9-8h10/|
--8------------------------|-----8----------------|----------------------------|
-----8h7h5----5b------5/---|--9-------------------|----------------------------|
-----------7-----7---------|----------------------|----------------------------|
---------------------------|----------------------|----------------------------|
---------------------------|----------------------|----------------------------|


                                                                   
--12----10----8----------------------|----------------------------|
-------------------12----13----12----|--10/-8-----10--------10/12-|
-------------------------------------|---------9------------------|
-------------------------------------|----------------------------|
-------------------------------------|----------------------------|
-------------------------------------|----------------------------|


                                                                    
--------------------------------|----------------------------------|
--12--12-12-12h13-12----10~-----|--12h13-13-13-13--12----8----8/10-|
--------------------------------|----------------------------------|
--------------------------------|----------------------------------|
--------------------------------|----------------------------------|
--------------------------------|----------------------------------|


                                                                               
--8h10/12--10--8------8/-7-----|--------5-------------|-----------------------|
------------------10--------8--|--7/-5-----8b---------|--8~---------8h5----5--|
-------------------------------|----------------------|-----------------7-----|
-------------------------------|----------------------|-----------------------|
-------------------------------|----------------------|-----------------------|
-------------------------------|----------------------|-----------------------|


                                                           
-----8-----------------|----------------------------------|
-----------------------|-----8------10------13--15h13-----|
--7b------7r-----5-----|--9-----11------14------------14--|
--------------------7--|----------------------------------|
-----------------------|----------------------------------|
-----------------------|----------------------------------|


                                                        
--------------15------15--|----------------------------|
--13--15b-----------------|--15r---13--15------13--15b-|
--------------------------|----------------------------|
--------------------------|----------------------------|
--------------------------|----------------------------|
--------------------------|----------------------------|


                                                              
--15----------15~-------15b-|--------------------------------|
------15r-13----------------|----15r---13--15h13-----13------|
----------------------------|--------------------14------14--|
----------------------------|--------------------------------|
----------------------------|--------------------------------|
----------------------------|--------------------------------|


                                                          
----------------------------15--|------15----15--15~-----|
--------15h13-----13--15b-------|------15r---15r-15~-----|
----14--------14----------------|------------------------|
--------------------------------|------------------------|
--------------------------------|------------------------|
--------------------------------|------------------------|


                                                        
--5--5--5--5--5--5--5--7--|--8--7--8--5----5--5--10-10-|
--5--5--5--5--5--5--5--7--|--8--7--8--5----5--5--10-10-|
--------------------------|----------------------------|
--------------------------|----------------------------|
--------------------------|----------------------------|
--------------------------|----------------------------|


                                                           
--10/8-8-8-8/7-7-7-7/8-7--5--3--|----5--3--5--7--5--3--5--|
--10/8-8-8-8/7-7-7-7/8-7--5--3--|----5--3--5--7--5--3--5--|
--------------------------------|-------------------------|
--------------------------------|-------------------------|
--------------------------------|-------------------------|
--------------------------------|-------------------------|


                                                            
----5-5-5/8-8-8-8/7-7-7-8--8--|--10--8--7--5----5/---12-12-|
----5-5-5/8-8-8-8/7-7-7-8--8--|--10--8--7--5----5/---12-12-|
------------------------------|----------------------------|
------------------------------|----------------------------|
------------------------------|----------------------------|
------------------------------|----------------------------|


                                       
--12/10-10-10-10/8-8-8-8--7--7/-0-0-0-|
--12/10-10-10-10/8-8-8-8--7--7/-------|
--------------------------------------|
--------------------------------------|
--------------------------------------|
--------------------------------------|


                                             
--5-0-0-3-0-0-5-0-0-7-0-0-8-0-0-7-0-0-8-0-0-|
--------------------------------------------|
--------------------------------------------|
--------------------------------------------|
--------------------------------------------|
--------------------------------------------|


                                                                                
--10-0-0-12-0-0-10-0-0-12-0-0-13-0-0-0-0-0-15-0-0-0-0-0-|--17~-----17/---------|
--------------------------------------------------------|----------------------|
--------------------------------------------------------|----------------------|
--------------------------------------------------------|----------------------|
--------------------------------------------------------|----------------------|
--------------------------------------------------------|----------------------|


                                                                
--------------------|--------------------|---------------------|
----------------14--|------14/-----------|---------------------|
----------------14--|------14/-----------|---------------------|
----------------14--|------14/-----------|---------------------|
--------------------|--------------------|------------7--7--7--|
--------------------|--------------------|------------5--5--5--|


                                                               
-------------------|------------------|-----------------------|
-------------------|------------------|--5----3----3--1-------|
-------------------|------------------|--5----4----3--2-------|
-------------------|------------------|--5----5----3--3-------|
--7/---------------|------------------|-----------------------|
--5/---------------|------------------|--------------------0--|


                                                                   
-----------------------|-----------------------|------------------|
-------------8~--------|-------------17~-------|------------------|
-------------7~--------|-------------19~-------|------------------|
-------------6~--------|-----------------------|------------------|
-------------7~-----7--|-----------------------|------------------|
----0--0--0---------0--|----0--0--0------------|------------------|


                                                                       
------------------|-------------------------|-------------------------|
------------------|-------------------------|-------------------------|
------------------|--------------7----------|--------------5----------|
------------------|--5h7---------7----------|--5h7---------5----------|
------------------|------0-0-0-0------------|------0-0-0-0------------|
------------------|-------------------------|-------------------------|


                                                                               
--------------------------------|-------------------|-------------------------|
--------------------------------|-------------------|-------------------------|
--------------7------5------2-2-|--2----------------|--------------7----------|
--5h7---------7------5------2-2-|--2----------------|--5h7---------7----------|
------0-0-0-0----0-0----0-0-----|--0----------------|------0-0-0-0------------|
--------------------------------|-------------------|-------------------------|


                                                           
-------------------------|--------------------------------|
-------------------------|--------------------------------|
--------------5----------|--------------7------5------14--|
--5h7---------5----------|--5h7---------7------5------14--|
------0-0-0-0------------|------0-0-0-0----0-0----0-0-----|
-------------------------|--------------------------------|


                                                                               
----------------------|------------------------------------|------------------|
--14------------14/---|------------------------------------|------------------|
--14------------14/---|------------------------------------|------------------|
--14------------14/---|------------------------------------|------------------|
----------------------|--12-12-12----12-12-12----12-12-12--|------------------|
----------------------|------------------------------------|------------------|


                                                                   
-----------------------|---------------------|--------------------|
-----------------------|---------------------|------------8r---8b-|
------------7b-7h5-----|--------5b-----------|--------------------|
-------------------7h5-|--7--7---------------|--------------------|
-----------------------|---------------------|--------------------|
-----------------------|---------------------|--------------------|


                                                                
------------------|--------8-------------|---------------------|
------------------|-------------5--------|---------------------|
------------------|----------------7r-5--|----7r-----7--5b-----|
------------------|----------------------|---------------------|
------------------|----------------------|---------------------|
------------------|----------------------|---------------------|


                                                                            
--------------------------|-------------------------|--5-------------------|
-----------------------5--|--------5----------------|-----5--8b-------8~---|
-----5-----------------5--|--------5--------5--7b---|----------------------|
--7-----7--7----7--5h7----|----5h7------5h7---------|----------------------|
--------------------------|-------------------------|----------------------|
--------------------------|-------------------------|----------------------|


                                                                               
-------------5---------|---------8--------------------|-----10r-----10~-------|
--8~------------8h5----|--5---------10----10--10h8----|--8--------------------|
--------------------7--|-----5/7-------------------9--|-----------------------|
-----------------------|------------------------------|-----------------------|
-----------------------|------------------------------|-----------------------|
-----------------------|------------------------------|-----------------------|


                                                                    
--10r-8----8--------------------|----------------------------------|
--------10----10--------13--15--|--15r--13-15r--13-15r--13-15r--13-|
--------------------14----------|----------------------------------|
--------------------------------|----------------------------------|
--------------------------------|----------------------------------|
--------------------------------|----------------------------------|


                                
--------15--------15------15--||
--15b-------15b-------15b-----||
------------------------------||
------------------------------||
------------------------------||
------------------------------||
















RHYTHM GUITAR:
[ Tab from: http://www.guitartabs.cc/tabs/n/nugent_ted/dog_eat_dog_tab.html ]
E||--------|----------------------------------|
B||--------|----------------------------------|
G||--------|----------------------------------|
D||--------|----------------------------------|
A||--------|--0-0-0-0-0-0-0-0-0-0-0-0-0-0-0-0-|
E||--10/---|----------------------------------|


                                                             
----------------------------------|-------------------------|
----------------------------------|-------------------------|
----------------------------------|--------------7----------|
----------------------------------|--5h7---------7----------|
--0-0-0-0-0-0-0-0-0-0-0-0-0-0-0-0-|------0-0-0-0------------|
----------------------------------|-------------------------|


                                                                               
-------------------------|--------------------------------|-------------------|
-------------------------|--------------------------------|-------------------|
--------------5----------|--------------7------5------2-2-|--2----------------|
--5h7---------5----------|--5h7---------7------5------2-2-|--2----------------|
------0-0-0-0------------|------0-0-0-0----0-0----0-0-----|--0----------------|
-------------------------|--------------------------------|-------------------|


                                                    
-------------------------|-------------------------|
-------------------------|-------------------------|
--------------7----------|--------------5----------|
--5h7---------7----------|--5h7---------5----------|
------0-0-0-0------------|------0-0-0-0------------|
-------------------------|-------------------------|


                                                     
--------------------------------|-------------------|
--------------------------------|-------------------|
--------------7------5------2-2-|--2----------------|
--5h7---------7------5------2-2-|--2----------------|
------0-0-0-0----0-0----0-0-----|--0----------------|
--------------------------------|-------------------|


                                                              
------------------------------|------------------------------|
------------------------------|------------------------------|
--------------7---------------|--------------5---------------|
--5h7---------7---------------|--5h7---------5---------------|
--0---0-0-0-0------0-0-0--0-0-|--0---0-0-0-0------0-0-0--0-0-|
------------------------------|------------------------------|


                                                    
-------------------------------|-------------------|
-------------------------------|-------------------|
--------------7------5------2--|--2----------------|
--5h7---------7------5------2--|--2----------------|
--0---0-0-0-0----0-0----0-0----|--0----------------|
-------------------------------|-------------------|


                                                              
------------------------------|------------------------------|
------------------------------|------------------------------|
--------------7---------------|--------------5---------------|
--5h7---------7---------------|--5h7---------5---------------|
--0---0-0-0-0------0-0-0--0-0-|--0---0-0-0-0------0-0-0--0-0-|
------------------------------|------------------------------|


                                                                                
-------------------------------|-------------------|---------------------------|
-------------------------------|-------------------|---------------------------|
--------------7------5------2--|--2----------------|--2-2-2----2-2-2----2-2-2--|
--5h7---------7------5------2--|--2----------------|--2-2-2----2-2-2----2-2-2--|
--0---0-0-0-0----0-0----0-0----|--0----------------|--0-0-0----0-0-0----0-0-0--|
-------------------------------|-------------------|---------------------------|


                                                      
--------------------------|--------------------------|
--------------------------|--------------------------|
--------5-----5--5--------|--5--5-----2--------------|
--------5-----5--5--------|--5--5-----2----2------2--|
--0--0-----0--------0--0--|--------0----------3h4----|
--------------------------|--------------------------|


                                                                             
--------------------------|----------------------|--------------------------|
--------------------------|----------------------|--------------------------|
--------5-----5--5--5-----|----------------------|--------5-----5--5--------|
--------5-----5--5--5-----|-------5--------------|--------5-----5--5--------|
--0--0-----0--------------|--------------6----6--|--0--0-----0--------0--0--|
-----------------------3--|----3---------4----4--|--------------------------|


                                                                       
----------------------|-----------------------|-----------------------|
----------------------|--5----3----3--1-------|-------------8~--------|
--5--5-----2----------|--5----4----3--2-------|-------------7~--------|
--5--5-----2----------|--5----5----3--3-------|-------------6~--------|
--------0--0----------|-----------------------|-------------7~-----7--|
----------------------|--------------------0--|----0--0--0---------0--|


                                                                              
-----------------------|--------------------------|--------------------------|
-------------8----8/---|--------------------------|--------------------------|
-------------7----7/---|--------5-----5--5--------|--5--5-----2--------------|
-------------6----6/---|--------5-----5--5--------|--5--5-----2----2------2--|
-------------7----7/---|--0--0-----0--------0--0--|--------0----------3h4----|
----0--0--0------------|--------------------------|--------------------------|


                                                                             
--------------------------|----------------------|--------------------------|
--------------------------|----------------------|--------------------------|
--------5-----5--5--5-----|----------------------|--------5-----5--5--------|
--------5-----5--5--5-----|-------5--------------|--------5-----5--5--------|
--0--0-----0--------------|--------------6----6--|--0--0-----0--------0--0--|
-----------------------3--|----3---------4----4--|--------------------------|


                                                                       
----------------------|-----------------------|-----------------------|
----------------------|--5----3----3--1-------|-------------8~--------|
--5--5-----2----------|--5----4----3--2-------|-------------7~--------|
--5--5-----2----------|--5----5----3--3-------|-------------6~--------|
--------0--0----------|-----------------------|-------------7~-----7--|
----------------------|--------------------0--|----0--0--0---------0--|


                                                                              
-----------------------|--------------------------|--------------------------|
-------------8----8/---|--------------------------|--------------------------|
-------------7----7/---|--------2-----0--0--------|--5--5-----2--------2--2--|
-------------6----6/---|--------2-----0--0--------|--5--5-----2-----------2--|
-------------7----7/---|--0--0-----0--------0--0--|--------0--0----3h4----0--|
----0--0--0------------|--------------------------|--------------------------|


                                                      
--------------------------|--------------------------|
--------------------------|--------------------------|
--------2-----0--0--------|--5--5-----2--------2--2--|
--------2-----0--0--------|--5--5-----2-----------2--|
--0--0-----0--------0--0--|--------0--0----3h4----0--|
--------------------------|--------------------------|


                                                                          
--------------------------|----------------------|-----------------------|
--------------------------|----------------------|--5----3----3--1-------|
--------2-----0--0--------|--5--5-----2----------|--5----4----3--2-------|
--------2-----0--0--------|--5--5-----2----------|--5----5----3--3-------|
--0--0-----0--------0--0--|--------0--0----------|-----------------------|
--------------------------|----------------------|--------------------0--|


                                                                           
-----------------------|-----------------------|--------------------------|
-------------8~--------|-------------8----8/---|--------------------------|
-------------7~--------|-------------7----7/---|--------5-----5--5--------|
-------------6~--------|-------------6----6/---|--------5-----5--5--------|
-------------7~-----7--|-------------7----7/---|--0--0-----0--------0--0--|
----0--0--0---------0--|----0--0--0------------|--------------------------|


                                                                             
--------------------------|--------------------------|----------------------|
--------------------------|--------------------------|----------------------|
--5--5-----2--------------|--------5-----5--5--5-----|----------------------|
--5--5-----2----2------2--|--------5-----5--5--5-----|-------5--------------|
--------0----------3h4----|--0--0-----0--------------|--------------6----6--|
--------------------------|-----------------------3--|----3---------4----4--|


                                                                          
--------------------------|----------------------|-----------------------|
--------------------------|----------------------|--5----3----3--1-------|
--------5-----5--5--------|--5--5-----2----------|--5----4----3--2-------|
--------5-----5--5--------|--5--5-----2----------|--5----5----3--3-------|
--0--0-----0--------0--0--|--------0--0----------|-----------------------|
--------------------------|----------------------|--------------------0--|


                                                                           
-----------------------|-----------------------|--------------------------|
-------------8~--------|-------------8----8/---|--------------------------|
-------------7~--------|-------------7----7/---|--------2-----0--0--------|
-------------6~--------|-------------6----6/---|--------2-----0--0--------|
-------------7~-----7--|-------------7----7/---|--0--0-----0--------0--0--|
----0--0--0---------0--|----0--0--0------------|--------------------------|


                                                      
--------------------------|--------------------------|
--------------------------|--------------------------|
--5--5-----2--------2--2--|--------2-----0--0--------|
--5--5-----2-----------2--|--------2-----0--0--------|
--------0--0----3h4----0--|--0--0-----0--------0--0--|
--------------------------|--------------------------|


                                                                             
--------------------------|--------------------------|----------------------|
--------------------------|--------------------------|----------------------|
--5--5-----2--------2--2--|--------2-----0--0--------|--5--5-----2----------|
--5--5-----2-----------2--|--------2-----0--0--------|--5--5-----2----------|
--------0--0----3h4----0--|--0--0-----0--------0--0--|--------0--0----------|
--------------------------|--------------------------|----------------------|


                                                                         
-----------------------|-----------------------|------------------------|
--5----3----3--1-------|-------------8~--------|-------------8----------|
--5----4----3--2-------|-------------7~--------|-------------7------7-7-|
--5----5----3--3-------|-------------6~--------|-------------6------7-7-|
-----------------------|-------------7~-----7--|-------------7------0-0-|
--------------------0--|----0--0--0---------0--|----0--0--0-------------|


                                                                  
---------------------|---------------------|---------------------|
---------------------|---------------------|---------------------|
--7--------------5-5-|--5--------------4-4-|--4--------------2-2-|
--7--------------5-5-|--5--------------4-4-|--4--------------2-2-|
--0--------------0-0-|--0--------------0-0-|--0--------------0-0-|
---------------------|---------------------|---------------------|


                                                                  
---------------------|---------------------|---------------------|
---------------------|---------------------|---------------------|
--2--------------7-7-|--7--------------5-5-|--5--------------4-4-|
--2--------------7-7-|--7--------------5-5-|--5--------------4-4-|
--0--------------0-0-|--0--------------0-0-|--0--------------0-0-|
---------------------|---------------------|---------------------|


                                                                  
---------------------|---------------------|---------------------|
---------------------|---------------------|---------------------|
--4--------------2-2-|--2--------------7-7-|--7--------------5-5-|
--4--------------2-2-|--2--------------7-7-|--7--------------5-5-|
--0--------------0-0-|--0--------------0-0-|--0--------------0-0-|
---------------------|---------------------|---------------------|


                                                                  
---------------------|---------------------|---------------------|
---------------------|---------------------|---------------------|
--5--------------4-4-|--4--------------2-2-|--2--------------7-7-|
--5--------------4-4-|--4--------------2-2-|--2--------------7-7-|
--0--------------0-0-|--0--------------0-0-|--0--------------0-0-|
---------------------|---------------------|---------------------|


                                                                  
---------------------|---------------------|---------------------|
---------------------|---------------------|---------------------|
--7--------------5-5-|--5--------------4-4-|--4--------------2-2-|
--7--------------5-5-|--5--------------4-4-|--4--------------2-2-|
--0--------------0-0-|--0--------------0-0-|--0--------------0-0-|
---------------------|---------------------|---------------------|


                                                                  
---------------------|---------------------|---------------------|
---------------------|---------------------|---------------------|
--2--------------7-7-|--7--------------5-5-|--5--------------4-4-|
--2--------------7-7-|--7--------------5-5-|--5--------------4-4-|
--0--------------0-0-|--0--------------0-0-|--0--------------0-0-|
---------------------|---------------------|---------------------|


                                                                  
---------------------|---------------------|---------------------|
---------------------|---------------------|---------------------|
--4--------------2-2-|--2--------------7-7-|--7--------------5-5-|
--4--------------2-2-|--2--------------7-7-|--7--------------5-5-|
--0--------------0-0-|--0--------------0-0-|--0--------------0-0-|
---------------------|---------------------|---------------------|


                                                              
--------------------|--------------------|-------------------|
--------------------|--------------------|-------------------|
--5--------------4--|--------3--------2--|--2----------------|
--5--------------4--|--------3--------2--|--2----------------|
--0--------------2--|--------1--------0--|--0----------------|
--------------------|--------------------|-------------------|


                                                       
---------------------------|--------------------------|
---------------------------|--------------------------|
--2-2-2----2-2-2----2-2-2--|--------5-----5--5--------|
--2-2-2----2-2-2----2-2-2--|--------5-----5--5--------|
--0-0-0----0-0-0----0-0-0--|--0--0-----0--------0--0--|
---------------------------|--------------------------|


                                                                             
--------------------------|--------------------------|----------------------|
--------------------------|--------------------------|----------------------|
--5--5-----2--------------|--------5-----5--5--5-----|----------------------|
--5--5-----2----2------2--|--------5-----5--5--5-----|-------5--------------|
--------0----------3h4----|--0--0-----0--------------|--------------6----6--|
--------------------------|-----------------------3--|----3---------4----4--|


                                                                          
--------------------------|----------------------|-----------------------|
--------------------------|----------------------|--5----3----3--1-------|
--------5-----5--5--------|--5--5-----2----------|--5----4----3--2-------|
--------5-----5--5--------|--5--5-----2----------|--5----5----3--3-------|
--0--0-----0--------0--0--|--------0--0----------|-----------------------|
--------------------------|----------------------|--------------------0--|


                                                                           
-----------------------|-----------------------|--------------------------|
-------------8~--------|-------------8----8/---|--------------------------|
-------------7~--------|-------------7----7/---|--------2-----0--0--------|
-------------6~--------|-------------6----6/---|--------2-----0--0--------|
-------------7~-----7--|-------------7----7/---|--0--0-----0--------0--0--|
----0--0--0---------0--|----0--0--0------------|--------------------------|


                                                      
--------------------------|--------------------------|
--------------------------|--------------------------|
--5--5-----2--------2--2--|--------2-----0--0--------|
--5--5-----2-----------2--|--------2-----0--0--------|
--------0--0----3h4----0--|--0--0-----0--------0--0--|
--------------------------|--------------------------|


                                                                             
--------------------------|--------------------------|----------------------|
--------------------------|--------------------------|----------------------|
--5--5-----2--------2--2--|--------2-----0--0--------|--5--5-----2----------|
--5--5-----2-----------2--|--------2-----0--0--------|--5--5-----2----------|
--------0--0----3h4----0--|--0--0-----0--------0--0--|--------0--0----------|
--------------------------|--------------------------|----------------------|


                                                                        
-----------------------|-----------------------|-----------------------|
--5----3----3--1-------|-------------8~--------|-------------8----8/---|
--5----4----3--2-------|-------------7~--------|-------------7----7/---|
--5----5----3--3-------|-------------6~--------|-------------6----6/---|
-----------------------|-------------7~-----7--|-------------7----7/---|
--------------------0--|----0--0--0---------0--|----0--0--0------------|


                                                                      
----------------------------------|----------------------------------|
----------------------------------|----------------------------------|
----------------------------------|----------------------------------|
----------------------------------|----------------------------------|
--0-0-0-0-0-0-0-0-0-0-0-0-0-0-0-0-|--0-0-0-0-0-0-0-0-0-0-0-0-0-0-0-0-|
----------------------------------|----------------------------------|


                                                    
-------------------------|-------------------------|
-------------------------|-------------------------|
--------------7----------|--------------5----------|
--5h7---------7----------|--5h7---------5----------|
------0-0-0-0------------|------0-0-0-0------------|
-------------------------|-------------------------|


                                                     
--------------------------------|-------------------|
--------------------------------|-------------------|
--------------7------5------2-2-|--2----------------|
--5h7---------7------5------2-2-|--2----------------|
------0-0-0-0----0-0----0-0-----|--0----------------|
--------------------------------|-------------------|


                                                              
------------------------------|------------------------------|
------------------------------|------------------------------|
--------------7---------------|--------------5---------------|
--5h7---------7---------------|--5h7---------5---------------|
--0---0-0-0-0------0-0-0--0-0-|--0---0-0-0-0------0-0-0--0-0-|
------------------------------|------------------------------|


                                                                                
-------------------------------|-------------------|---------------------------|
-------------------------------|-------------------|---------------------------|
--------------7------5------2--|--2----------------|--2-2-2----2-2-2----2-2-2--|
--5h7---------7------5------2--|--2----------------|--2-2-2----2-2-2----2-2-2--|
--0---0-0-0-0----0-0----0-0----|--0----------------|--0-0-0----0-0-0----0-0-0--|
-------------------------------|-------------------|---------------------------|


                                                      
--------------------------|--------------------------|
--------------------------|--------------------------|
--------2-----0--0--------|--5--5-----2--------2--2--|
--------2-----0--0--------|--5--5-----2-----------2--|
--0--0-----0--------0--0--|--------0--0----3h4----0--|
--------------------------|--------------------------|


                                                      
--------------------------|--------------------------|
--------------------------|--------------------------|
--------2-----0--0--------|--5--5-----2--------2--2--|
--------2-----0--0--------|--5--5-----2-----------2--|
--0--0-----0--------0--0--|--------0--0----3h4----0--|
--------------------------|--------------------------|


                                                                                
--------------------------|--------------------------|-------------------------|
--------------------------|--------------------------|-------------------------|
--------2-----0--0--------|--5--5-----2--------2--2--|-------2-----0--0--------|
--------2-----0--0--------|--5--5-----2-----------2--|-------2-----0--0--------|
--0--0-----0--------0--0--|--------0--0----3h4----0--|----0-----0--------0--0--|
--------------------------|--------------------------|-------------------------|


                                                                              
-------------------------|-------------------------|-------------------------|
-------------------------|-------------------------|-------------------------|
--5--5-----2-------------|-------2-----0--0--------|--5--5-----2-------------|
--5--5-----2-------------|-------2-----0--0--------|--5--5-----2-------------|
--------0--0----7--7--7--|--7/------0--------0--0--|--------0--0----7--7--7--|
----------------5--5--5--|--5/---------------------|----------------5--5--5--|


                                                                              
-------------------------|-------------------------|-------------------------|
-------------------------|-------------------------|-------------------------|
-------2-----0--0--------|--5--5-----2-------------|-------2-----0--0--------|
-------2-----0--0--------|--5--5-----2-------------|-------2-----0--0--------|
--7/------0--------0--0--|--------0--0----7--7--7--|--7/------0--------0--0--|
--5/---------------------|----------------5--5--5--|--5/---------------------|


                                                                               
-------------------------|-------------------------|-------------------------||
-------------------------|-------------------------|-------------------------||
--5--5-----2-------------|-------2-----0--0--------|--5--5-----2-------------||
--5--5-----2-------------|-------2-----0--0--------|--5--5-----2-------------||
--------0--0----7--7--7--|--7/------0--------0--0--|--------0--0----7--7--7--||
----------------5--5--5--|--5/---------------------|----------------5--5--5--||
Comments