Nugent Ted - Cat Scratch Fever Chords & Tabs

 

Cat Scratch Fever Chords & Tabs

Nugent Ted Chords & Tabs

Version: 4 Type: Tab 3 ratings
1 star 2 stars 3 stars 4 stars 5 stars
comments

Cat Scratch Fever Tab

                          Ted Nugent - Cat Scratch Fever
                                    by digiti




LEAD GUITAR:
                                                                  
E||----------|------------------|------------------|------------------|
B||----------|------------------|------------------|------------------|
G||----------|------------------|------------------|------------------|
D||----------|------------------|------------------|------------------|
A||----------|------------------|------------------|------------------|
E||----------|------------------|------------------|------------------|


                                                                              
--------------------|------------------|------------------|------------------|
------------5r------|------------------|------------------|------------------|
------------4r------|------------------|------------------|------------------|
--------------------|------------------|------------------|------------------|
-----------------0--|------------------|------------------|------------------|
--------------------|------------------|------------------|------------------|


                                                                            
------------------|------------------|------------------|------------------|
------------------|------------------|------------------|------------------|
------------------|------------------|------------------|------------------|
------------------|------------------|------------------|------------------|
------------------|------------------|------------------|------------------|
------------------|------------------|------------------|------------------|


                                                                         
----------15------------|----------------------------|------------------|
--------------15r---13~-|------15r---15r-15r-15r-15r-|------------------|
------------------------|----------------------------|------------------|
------------------------|----------------------------|------------------|
------------------------|----------------------------|------------------|
------------------------|----------------------------|------------------|


                                                                     
------------------|------------------------------|------------------|
------------------|--20h17h20--20b-20~-------20/-|------------------|
------------------|------------------------------|------------------|
------------------|------------------------------|------------------|
------------------|------------------------------|------------------|
------------------|------------------------------|------------------|


                                                                            
------------------|------------------|------------------|------------------|
------------------|------------------|------------------|------------------|
------------------|------------------|------------------|------------------|
------------------|------------------|------------------|------------------|
------------------|------------------|------------------|------------------|
------------------|------------------|------------------|------------------|


                                                                            
------------------|------------------|------------------|------------------|
------------------|------------------|------------------|------------------|
------------------|------------------|------------------|------------------|
------------------|------------------|------------------|------------------|
------------------|------------------|------------------|------------------|
------------------|------------------|------------------|------------------|


                                                                 
------------------|------------------|----15--------------------|
------------------|------------------|--------15r-13~-----13/---|
------------------|------------------|--------------------------|
------------------|------------------|--------------------------|
------------------|------------------|--------------------------|
------------------|------------------|--------------------------|


                                                                            
------------------|------------------|------------------|------------------|
------------------|------------------|------------------|------------------|
------------------|------------------|------------------|------------------|
------------------|------------------|------------------|------------------|
------------------|------------------|------------------|------------------|
------------------|------------------|------------------|------------------|


                                                                            
------------------|------------------|------------------|------------------|
------------------|------------------|------------------|------------------|
------------------|------------------|------------------|------------------|
------------------|------------------|------------------|------------------|
------------------|------------------|------------------|------------------|
------------------|------------------|------------------|------------------|


                                                         
------------------|------------------|------------------|
------------------|------------------|------------------|
------------------|------------------|------------------|
------------------|------------------|------------------|
------------------|------------------|------------------|
------------------|------------------|------------------|


                                                                             
----15----------------------|------------------|----------------------------|
--------15r-13~---15~-15/---|------------------|--20h-17--20b-20~-----20/---|
----------------------------|------------------|----------------------------|
----------------------------|------------------|----------------------------|
----------------------------|------------------|----------------------------|
----------------------------|------------------|----------------------------|


                                                                   
------------------|--20h-17--20b-20~-----20/---|------------------|
------------------|--20h-17--20b-20~-----20/---|------------------|
------------------|----------------------------|------------------|
------------------|----------------------------|------------------|
------------------|----------------------------|------------------|
------------------|----------------------------|------------------|


                                                               
------------------|------------------|------------------------|
------------------|------------------|----6--5-----6--5-------|
------------------|------------------|----5--5--5--5--5--5----|
------------------|------------------|----------5--------5----|
------------------|------------------|------------------------|
------------------|------------------|------------------------|


                                                                            
------------------|------------------|------------------|------------------|
------------------|------------------|------------------|------------------|
------------------|------------------|------------------|------------------|
------------------|------------------|------------------|------------------|
------------------|------------------|------------------|------------------|
------------------|------------------|------------------|------------------|


                                                                           
---------------------|--------------------------|-------------------------|
---------------------|--8~-8~-8~-8~-8~-8~-8~-8~-|--8--7--5-------5--8--8~-|
---------------5--7--|--9~-9~-9~-9~-9~-9~-9~-9~-|--9--7--5----------------|
------------7--------|--------------------------|-----------7~------------|
---------------------|--------------------------|-------------------------|
---------------------|--------------------------|-------------------------|


                                                      
---------------------------|--5------------------10r-|
------8~---8-5-------------|--5---------------8------|
---------------8-7-5---5-7-|-----5b--------9---------|
---------------------7-----|----------7~-------------|
---------------------------|-------------------------|
---------------------------|-------------------------|


                                                  
----------10r---------10r-|--------10~-------10~-|
-------8-----------8------|----------------------|
----9-----------9---------|----------------------|
--------------------------|----------------------|
--------------------------|----------------------|
--------------------------|----------------------|


                                                                   
--10~-10~-10~-10~-10~-10~-10~-10~-|--10r--8-----------------------|
----------------------------------|---------10--10~-------13--15b-|
----------------------------------|-------------------14----------|
----------------------------------|-------------------------------|
----------------------------------|-------------------------------|
----------------------------------|-------------------------------|


                                                                  
------------15------------------|------------15------------------|
----15b-15b-----15r-13--15b-15--|----13--15b-----15r-17--20--20~-|
--------------------------------|--------------------17----------|
--------------------------------|--------------------------------|
--------------------------------|--------------------------------|
--------------------------------|--------------------------------|


                                                                               
----------------------17--|--------17--------17--------|----------------------|
------20~---20b-----------|----------------------------|----------------------|
----------------19b-------|--19b-------19b-------19b---|--------19r-----19b---|
--------------------------|----------------------------|----------------------|
--------------------------|----------------------------|----------------------|
--------------------------|----------------------------|----------------------|


                                                                   
----------------------------|------------------|------------------|
--20b-17--20--20~-------20/-|------------------|------------------|
----------------------------|------------------|------------------|
----------------------------|------------------|------------------|
----------------------------|------------------|------------------|
----------------------------|------------------|------------------|


                                                                   
------------------|----15----------------------|------------------|
------------------|--------15r---13--15~---15/-|------------------|
------------------|----------------------------|------------------|
------------------|----------------------------|------------------|
------------------|----------------------------|------------------|
------------------|----------------------------|------------------|


                                                                     
------------------|------------------|----17--20--17--20b-20~-20/---|
------------------|------------------|----17--20--17--20b-20~-20/---|
------------------|------------------|------------------------------|
------------------|------------------|------------------------------|
------------------|------------------|------------------------------|
------------------|------------------|------------------------------|


                                                         
------------------|------------------|------------------|
------------------|------------------|------------------|
------------------|------------------|------------------|
------------------|------------------|------------------|
------------------|------------------|------------------|
------------------|------------------|------------------|


                                                                 
----17--------------------|------------------|------------------|
----17----17r-------------|------------------|------------------|
----------18r---18~---18/-|------------------|------------------|
----------------19~---19/-|------------------|------------------|
--------------------------|------------------|------------------|
--------------------------|------------------|------------------|


                                                                   
------------------|----------------------------|------------------|
------------------|--20--17--20b-20~-----20/---|------------------|
------------------|----------------------------|------------------|
------------------|----------------------------|------------------|
------------------|----------------------------|------------------|
------------------|----------------------------|------------------|


                                                                               
------------------|------------------|------------12r------|------------------|
------------------|------------------|------------12r------|------------------|
------------------|------------------|---------------------|------------------|
------------------|------------------|---------------------|------------------|
------------------|------------------|------------------0--|------------------|
------------------|------------------|---------------------|------------------|


                                                            
------------------|------------------|---------------------|
------------------|------------------|---------------------|
------------------|------------------|---------------5--7--|
------------------|------------------|------------7--------|
------------------|------------------|---------------------|
------------------|------------------|---------------------|


                                                         
------------------------------|-------------------------|
------------------------------|-----------5~---5--8--5--|
--7b-7b7b7b-7b7b7b-7b7b7b-7b7b|--7b-7--5--7~------------|
------------------------------|-------------------------|
------------------------------|-------------------------|
------------------------------|-------------------------|


                                                         
-----------------------------|--------------------------|
--8b-8b8b8b-8b8b8b-8b8b8b-8b-|--8r5---------------8--8--|
-----------------------------|------7--5-------9-----9--|
-----------------------------|------------7-------------|
-----------------------------|--------------------------|
-----------------------------|--------------------------|


                                                         
--------------------------|------------0----------------|
--8~-8~-8~----8~----8~----|--8---------8b-------13--15~-|
--9~-9~-9~-9~----9~----9~-|-----9/7-5-------14----------|
--------------------------|-----------------------------|
--------------------------|-----------------------------|
--------------------------|-----------------------------|


                                                          
------------------------|--------------------------------|
------15~---15~---15~---|--15r--13-----------------------|
------------------------|----------14--14--------17--19b-|
------------------------|--------------------19----------|
------------------------|--------------------------------|
------------------------|--------------------------------|


                                                                  
--------------------------------|--------------------------------|
----20------20------20----------|------20------20~---17--20--20~-|
--------19b-----19b-----19r-17--|--19b-----17--------------------|
--------------------------------|--------------------------------|
--------------------------------|--------------------------------|
--------------------------------|--------------------------------|


                                                              
--------------------------------|----------------------------|
----20~-20~-20~-20~-20~-20~-20~-|--20~-20--17--20~-----20/---|
--------------------------------|----------------------------|
--------------------------------|----------------------------|
--------------------------------|----------------------------|
--------------------------------|----------------------------|


                                                                     
--------------------------|------------------|----------------------|
--10----12----14b-14~-----|------------------|--14b-14~-------------|
--12b---14b---14b-14~-----|------------------|--14b-14~-------------|
--------------------------|------------------|----------------------|
--------------------------|------------------|----------------------|
--------------------------|------------------|----------------------|


                                                                 
----------------------|------------------|----------------------|
----------14b---14~---|------------------|--14b---14r-----------|
----------14b---14~---|------------------|--14b---14r-----------|
----------------------|------------------|----------------------|
----------------------|------------------|----------------------|
----------------------|------------------|----------------------|


                                                                               
-------------------------------------|----------------------------------------|
------14~-------13--15--15r-13----13-|--15r-13----15r--13-----13--15b---13----|
------14~---14-----------------14----|---------14---------14---------------14-|
-------------------------------------|----------------------------------------|
-------------------------------------|----------------------------------------|
-------------------------------------|----------------------------------------|


                                                                          
------------------------|--------------------------|----------17/-------||
--13-12-----------------|--10----10----14--14~-----|--------------------||
--------14~-------------|--12b---12b---14--14~-----|--------------------||
------------------------|--------------------------|--------------------||
------------------------|--------------------------|--------------------||
------------------------|--------------------------|--------------------||
























RHYTHM GUITAR:
                                                                                                                             
E||------------|------------------------|----------------------|
B||--5r--------|------------------------|----------------------|
G||--4r-----2--|-------4-----5--5-------|--2--4-----5----------|
D||---------2--|-------4-----5--5-------|--2--4-----5----------|
A||---------0--|----0-----0----------0--|--------0-------------|
E||------------|------------------------|----------------------|

[ Tab from: http://www.guitartabs.cc/tabs/n/nugent_ted/cat_scratch_fever_tab_ver_4.html ]
                                                                            
-------------------------|------------------------|------------------------|
-------------------------|----------------5r------|------------------------|
--2-----4-----5--5-------|--5--4-----2----4r---2--|-------4-----5--5-------|
--2-----4-----5--5-------|--5--4-----2---------2--|-------4-----5--5-------|
-----0-----0----------0--|--------0------------0--|----0-----0----------0--|
-------------------------|------------------------|------------------------|


                                                                              
-------------------------|-------------------------|-------------------------|
-------------------------|-------------------------|-------------------------|
--2--4-----5-------------|--2-----4-----5--5-------|--5--4-----2-------------|
--2--4-----5-------------|--2-----4-----5--5-------|--5--4-----2-------------|
--------0----------------|-----0-----0----------0--|--------0----------------|
----------------0--3--4--|-------------------------|----------------0--3--4--|


                                                                              
-------------------------|-------------------------|-------------------------|
-------------------------|-------------------------|-------------------------|
--2-----4-----5--5-------|--2--4-----5-------------|--2-----4-----5--5-------|
--2-----4-----5--5-------|--2--4-----5-------------|--2-----4-----5--5-------|
-----0-----0----------0--|--------0----------------|-----0-----0----------0--|
-------------------------|----------------0--3--4--|-------------------------|


                                                                              
-------------------------|-------------------------|-------------------------|
-------------------------|-------------------------|-------------------------|
--5--4-----2-------------|--2-----4-----5--5-------|--2--4-----5-------------|
--5--4-----2-------------|--2-----4-----5--5-------|--2--4-----5-------------|
--------0----------------|-----0-----0----------0--|--------0----------------|
----------------0--3--4--|-------------------------|----------------0--3--4--|


                                                                              
-------------------------|-------------------------|-------------------------|
-------------------------|-------------------------|-------------------------|
--2-----4-----5--5-------|--5--4-----2----------2--|-------5-----2-----5-----|
--2-----4-----5--5-------|--5--4-----2----------2--|-------5-----2-----5-----|
-----0-----0----------0--|--------0-------------0--|----0-----0-----0-----0--|
-------------------------|----------------0--3-----|-------------------------|


                                                                               
-------------------------|--------------------2-----|-------------------------|
-------------------------|--------------------3-----|-------------------------|
--2--5-----2-------------|-----------0-----2-----2--|-------5-----2--5-----2--|
--2--5-----2-------------|--------0-----0--------2--|-------5-----2--5-----2--|
--------0-------0--3--4--|-----2-----------------0--|----0-----0-----------0--|
-------------------------|--3-----------------------|-------------------3b----|


                                                                               
-------------------------|-------------------------|--------------------2-----|
-------------------------|-------------------------|--------------------3-----|
-------5-----2-----5-----|--2--5-----2-------------|-----------0-----2-----2--|
-------5-----2-----5-----|--2--5-----2-------------|--------0-----0--------2--|
----0-----0-----0-----0--|--------0-------0--3--4--|-----2-----------------0--|
-------------------------|-------------------------|--3-----------------------|


                                                                              
-------------------------|-------------------------|-------------------------|
-------------------------|-------------------------|-------------------------|
-------5-----2-----------|--2-----4-----5--5~------|--2--4-----5~------------|
-------5-----2-----------|--2-----4-----5--5~------|--2--4-----5-------------|
----0-----0--------------|-----0-----0----------0--|--------0----------------|
----------------0--3--4--|-------------------------|----------------0--3--4--|


                                                                              
-------------------------|-------------------------|-------------------------|
-------------------------|-------------------------|-------------------------|
--2-----4-----5--5~------|--5--4-----2----------2--|-------5-----2-----5-----|
--2-----4-----5--5~------|--5--4-----2----------2--|-------5-----2-----5-----|
-----0-----0----------0--|--------0-------------0--|----0-----0-----0-----0--|
-------------------------|----------------0--3b----|-------------------------|


                                                                               
-------------------------|--------------------2-----|-------------------------|
-------------------------|--------------------3-----|-------------------------|
--2--5-----2-------------|-----------0-----2-----2--|-------5-----2--5-----2--|
--2--5-----2-------------|--------0-----0--------2--|-------5-----2--5-----2--|
--------0-------0--3--4--|-----2-----------------0--|----0-----0-----------0--|
-------------------------|--3-----------------------|-------------------3b----|


                                                                               
-------------------------|-------------------------|--------------------2-----|
-------------------------|-------------------------|--------------------3-----|
-------5-----2-----5-----|--2--5-----2-------------|-----------0-----2-----2--|
-------5-----2-----5-----|--2--5-----2-------------|--------0-----0--------2--|
----0-----0-----0-----0--|--------0-------0--3--4--|-----2-----------------0--|
-------------------------|-------------------------|--3-----------------------|


                                                                              
-------------------------|-------------------------|-------------------------|
-------------------------|-------------------------|-------------------------|
-------5-----2-----------|--2-----4-----5--5~------|--2--4-----5~------------|
-------5-----2-----------|--2-----4-----5--5~------|--2--4-----5-------------|
----0-----0--------------|-----0-----0----------0--|--------0----------------|
----------------0--3--4--|-------------------------|----------------0--3--4--|


                                                                              
-------------------------|-------------------------|-------------------------|
-------------------------|-------------------------|-------------------------|
--2-----4-----5--5~------|--5--4-----2-------------|--2-----4-----5--5~------|
--2-----4-----5--5~------|--5--4-----2-------------|--2-----4-----5--5~------|
-----0-----0----------0--|--------0----------------|-----0-----0----------0--|
-------------------------|----------------0--3--4--|-------------------------|


                                                                              
-------------------------|-------------------------|-------------------------|
-------------------------|-------------------------|-------------------------|
--2--4-----5~------------|--2-----4-----5--5~------|--5--4-----2----------8--|
--2--4-----5-------------|--2-----4-----5--5~------|--5--4-----2----------8--|
--------0----------------|-----0-----0----------0--|--------0--0----0--0--6--|
----------------0--3--4--|-------------------------|-------------------------|


                                                                           
------------------------|------------------------|------------------------|
------------------------|------------------------|------------------------|
----8~-8~-8~-8~-8/---5--|----5~-5~-5~-5~-5/---8--|----8~-8~-8~-8~-8/---5--|
----8~-8~-8~-8~-8/---5--|----5~-5~-5~-5~-5/---8--|----8~-8~-8~-8~-8/---5--|
----6~-6~-6~-6~-6/---3--|----3~-3~-3~-3~-3/---6--|----6~-6~-6~-6~-6/---3--|
------------------------|------------------------|------------------------|


                                                                          
-----------------------|------------------------|------------------------|
-----------------------|------------------------|------------------------|
--------5--5--5--5--8--|----8~-8~-8~-8~-8/---5--|----5~-5~-5~-5~-5/---8--|
--------5--5--5--5--8--|----8~-8~-8~-8~-8/---5--|----5~-5~-5~-5~-5/---8--|
--------3--3--3--3--6--|----6~-6~-6~-6~-6/---3--|----3~-3~-3~-3~-3/---6--|
-----------------------|------------------------|------------------------|


                                                                           
-------------------------|------------------------|-----------------------|
-------------------------|------------------------|-----------------------|
----8~-8~-8~-8~-8~-8~-9--|----------9----------9--|----9----9-------------|
----8~-8~-8~-8~-8~-8~-9--|----------9----------9--|----9----9-------------|
----6~-6~-6~-6~-6~-6~-7--|----------7----------7--|----7----7-------------|
-------------------------|----0--0-------0--0-----|--------------0--3--4--|


                                                                              
-------------------------|-------------------------|-------------------------|
-------------------------|-------------------------|-------------------------|
--2-----4-----5--5~------|--2--4-----5~------------|--2-----4-----5--5~------|
--2-----4-----5--5~------|--2--4-----5-------------|--2-----4-----5--5~------|
-----0-----0----------0--|--------0----------------|-----0-----0----------0--|
-------------------------|----------------0--3--4--|-------------------------|


                                                                              
-------------------------|-------------------------|-------------------------|
-------------------------|-------------------------|-------------------------|
--5--4-----2-------------|--2-----4-----5--5~------|--2--4-----5~------------|
--5--4-----2-------------|--2-----4-----5--5~------|--2--4-----5-------------|
--------0----------------|-----0-----0----------0--|--------0----------------|
----------------0--3--4--|-------------------------|----------------0--3--4--|


                                                                             
-------------------------|-------------------------|------------------------|
-------------------------|-------------------------|------------------------|
--2-----4-----5--5~------|--5--4-----2----------7--|----7--7--7--9--9----5--|
--2-----4-----5--5~------|--5--4-----2----------7--|----7--7--7--9--9----5--|
-----0-----0----------0--|--------0-------0--0--5--|----5--5--5--7--7----3--|
-------------------------|-------------------------|------------------------|


                                                                              
-------------------------|-------------------------|-------------------------|
-------------------------|-------------------------|-------------------------|
----5--5--5--7-----------|--2-----4-----5--5~------|--2--4-----5~------------|
----5--5--5--7-----------|--2-----4-----5--5~------|--2--4-----5-------------|
----3--3--3--5-----------|-----0-----0----------0--|--------0----------------|
----------------0--3--4--|-------------------------|----------------0--3--4--|


                                                                              
-------------------------|-------------------------|-------------------------|
-------------------------|-------------------------|-------------------------|
--2-----4-----5--5~------|--5--4-----2----------2--|-------5-----2-----5-----|
--2-----4-----5--5~------|--5--4-----2----------2--|-------5-----2-----5-----|
-----0-----0----------0--|--------0-------------0--|----0-----0-----0-----0--|
-------------------------|----------------0--3b----|-------------------------|


                                                                               
-------------------------|--------------------2-----|-------------------------|
-------------------------|--------------------3-----|-------------------------|
--2--5-----2-------------|-----------0-----2-----2--|-------5-----2--5-----2--|
--2--5-----2-------------|--------0-----0--------2--|-------5-----2--5-----2--|
--------0-------0--3--4--|-----2-----------------0--|----0-----0-----------0--|
-------------------------|--3-----------------------|-------------------3b----|


                                                                               
-------------------------|-------------------------|--------------------2-----|
-------------------------|-------------------------|--------------------3-----|
-------5-----2-----5-----|--2--5-----2-------------|-----------0-----2-----2--|
-------5-----2-----5-----|--2--5-----2-------------|--------0-----0--------2--|
----0-----0-----0-----0--|--------0-------0--3--4--|-----2-----------------0--|
-------------------------|-------------------------|--3-----------------------|


                                                                              
-------------------------|-------------------------|-------------------------|
-------------------------|-------------------------|-------------------------|
-------5-----2-----------|--2-----4-----5--5~------|--2--4-----5~------------|
-------5-----2-----------|--2-----4-----5--5~------|--2--4-----5-------------|
----0-----0--------------|-----0-----0----------0--|--------0----------------|
----------------0--3--4--|-------------------------|----------------0--3--4--|


                                                                              
-------------------------|-------------------------|-------------------------|
-------------------------|-------------------------|-------------------------|
--2-----4-----5--5~------|--5--4-----2-------------|--2-----4-----5--5~------|
--2-----4-----5--5~------|--5--4-----2-------------|--2-----4-----5--5~------|
-----0-----0----------0--|--------0----------------|-----0-----0----------0--|
-------------------------|----------------0--3--4--|-------------------------|


                                                                              
-------------------------|-------------------------|-------------------------|
-------------------------|-------------------------|-------------------------|
--2--4-----5~------------|--2-----4-----5--5~------|--5--4-----2-------------|
--2--4-----5-------------|--2-----4-----5--5~------|--5--4-----2-------------|
--------0----------------|-----0-----0----------0--|--------0----------------|
----------------0--3--4--|-------------------------|----------------0--3--4--|


                                                                         
------------------------|----------------------|------------------------|
------------------------|----------------------|------------------------|
--2-----4-----5--5~-----|--2--4-----5~---------|--2-----4-----5--5~-----|
--2-----4-----5--5~-----|--2--4-----5~---------|--2-----4-----5--5~-----|
-----0-----0------------|--------0-------------|-----0-----0------------|
------------------------|----------------------|------------------------|


                                                                         
------------------------|------------------------|----------------------|
------------------------|------------------------|----------------------|
--5--4-----2----4r---2--|-------4-----5--5~------|--2--4-----5~---------|
--5--4-----2---------2--|-------4-----5--5~------|--2--4-----5~---------|
--------0------------0--|----0-----0----------0--|--------0-------------|
------------------------|------------------------|----------------------|


                                                                              
-------------------------|-------------------------|-------------------------|
-------------------------|-------------------------|-------------------------|
--2-----4-----5--5~------|--5--4-----2-------------|--2-----4-----5--5~------|
--2-----4-----5--5~------|--5--4-----2-------------|--2-----4-----5--5~------|
-----0-----0----------0--|--------0----------------|-----0-----0----------0--|
-------------------------|----------------0--3--4--|-------------------------|


                                                                              
-------------------------|-------------------------|-------------------------|
-------------------------|-------------------------|-------------------------|
--2--4-----5~------------|--2-----4-----5--5~------|--5--4-----2-------------|
--2--4-----5~------------|--2-----4-----5--5~------|--5--4-----2-------------|
--------0----------------|-----0-----0----------0--|--------0----------------|
----------------0--3--4--|-------------------------|----------------0--3--4--|


                                                                              
-------------------------|-------------------------|-------------------------|
-------------------------|-------------------------|-------------------------|
--2-----4-----5--5~------|--2--4-----5~------------|--2-----4-----5--5~------|
--2-----4-----5--5~------|--2--4-----5~------------|--2-----4-----5--5~------|
-----0-----0----------0--|--------0----------------|-----0-----0----------0--|
-------------------------|----------------0--3--4--|-------------------------|


                                                                              
-------------------------|-------------------------|-------------------------|
-------------------------|-------------------------|-------------------------|
--5--4-----2-------------|--2-----4-----5--5~------|--2--4-----5~------------|
--5--4-----2-------------|--2-----4-----5--5~------|--2--4-----5~------------|
--------0----------------|-----0-----0----------0--|--------0----------------|
----------------0--3--4--|-------------------------|----------------0--3--4--|


                                                                             
-------------------------|-------------------------|------------------------|
-------------------------|-------------------------|------------------------|
--2-----4-----5--5~------|--5--4-----2-------------|--2-----4-----5--5~-----|
--2-----4-----5--5~------|--5--4-----2-------------|--2-----4-----5--5~-----|
-----0-----0----------0--|--------0----------------|-----0-----0------------|
-------------------------|----------------0--3--4--|------------------------|


                                                                
--------------------|--------------------|---------------------|
--------------------|--------------------|---------------------|
--------------------|--5--5~-------------|-----------5----5~---|
--------------------|--5--5~-------------|-----------5----5~---|
--------------0--0--|--------------------|------0--------------|
--------------------|--------------------|---------------------|


                                                              
--------------------|--------------------|-------------------|
--------------------|--------------------|-------------------|
--------------------|--5----5~-----------|-----2-------------|
--------------------|--5----5~-----------|-----2-------------|
--------------0--0--|--------------------|-----0-------------|
--------------------|--------------------|-------------------|


                                                               
-------------------|-------------------|----------------------|
-------------------|-------------------|----------------------|
--4----------------|--2----------------|--2----2----2--2------|
--4----------------|--2----------------|--2----2----2--2------|
--0----------------|--0----------------|--0----0----0--0------|
-------------------|-------------------|----------------------|


                     
-------------------||
-------------------||
----------2--------||
----------2--------||
----------0--------||
-------------------||
Comments