Nugent Ted - Cat Scratch Fever Chords & Tabs

 

Cat Scratch Fever Chords & Tabs

Nugent Ted Chords & Tabs

Version: 3 Type: Tab 0 ratings
1 star 2 stars 3 stars 4 stars 5 stars
comments

Cat Scratch Fever Tab

----------------------------------PLEASE NOTE---------------------------------#
#This file is the author's own work and represents their interpretation of the #
#song. You may only use this file for private study, scholarship, or research. #
#------------------------------------------------------------------------------##
From: "John M. Hester" 


Cat Scratch Fever by Ted Nugent
________________________________

Transcribed by Capt.Neon (74462,1761@Compuserve.com)

Intro
|----------------------------------------------|
|--------2-4-5-5-2-4-5---------2-4-5-5-5-4-2---|
|--------2-4-5-5-2-4-5---------2-4-5-5-5-4-2---|
|--------2-4-5-5-2-4-5---------2-4-5-5-5-4-2---|
|--------0-0-0-0-0-0-0---------0-0-0-0-0-0-0---|
|-0-3-4-----------------0-3-4------------------|

[ Tab from: http://www.guitartabs.cc/tabs/n/nugent_ted/cat_scratch_fever_tab_ver_3.html ]
|----------------------------------------------------------|
|----2----2----5----5----2----2----5----5----2----5---2----|
|----2----2----5----5----2----2----5----5----2----5---2----|
|----2----2----5----5----2----2----5----5----2----5---2----|
|----0----2----0----0----0----0----0----0----0----0---0----|
|----------------------------------------------------------|  
 
Chorus
|----------------------------------------------|
|--------2-4-5-5-2-4-5---------2-4-5-5-5-4-2---|
|--------2-4-5-5-2-4-5---------2-4-5-5-5-4-2---|
|--------2-4-5-5-2-4-5---------2-4-5-5-5-4-2---|
|--------0-0-0-0-0-0-0---------0-0-0-0-0-0-0---|
|-0-3-4-----------------0-3-4------------------|

They give me cat scratch fever. Cat scratch fever.

|----------------------------------------------------------|
|----2----2----5----5----2----2----5----5----2----5---2----|
|----2----2----5----5----2----2----5----5----2----5---2----|
|----2----2----5----5----2----2----5----5----2----5---2----|
|----0----2----0----0----0----0----0----0----0----0---0----|
|----------------------------------------------------------|  

Well tLead break (your on your own here!)

|----------------------------------------------------------|
|----2----2----5----5----2----2----5----5----2----5---2----|
|----2----2----5----5----2----2----5----5----2----5---2----|
|----2----2----5----5----2----2----5----5----2----5---2----|
|----0----2----0----0----0----0----0----0----0----0---0----|
|----------------------------------------------------------|                

Well IRepeat Chorus to fade out
Comments