Nugent Ted - Cat Scratch Fever Chords & Tabs

 

Cat Scratch Fever Chords & Tabs

Nugent Ted Chords & Tabs

Version: 2 Type: Tab 10 ratings
1 star 2 stars 3 stars 4 stars 5 stars
comments

Cat Scratch Fever Tab

   
Cat Scratch Fever
(2 Guitars)

Intro:
e|---------------|------------------------------|
B|-12b14r12-10~~-|-4-5-5--2-4-5--2-4-5-5--5-4-2-|
G|---------------|-4-5-5--2-4-5--2-4-5-5--5-4-2-|
D|---------------|-4-5-5--2-4-5--2-4-5-5--5-4-2-|
A|---------------|-0-0-0--0-0-0--0-0-0-0--0-0-0-|
E|---------------|------------------------------|

e|-------------------------------------------| 
B|-------2-4-5-5--2-4-5-------2-4-5-5--5-4-2-|
G|-------2-4-5-5--2-4-5-------2-4-5-5--5-4-2-|
D|-------2-4-5-5--2-4-5-------2-4-5-5--5-4-2-| x2
A|-------0-0-0-0--0-0-0-------0-0-0-0--0-0-0-|
E|-0-3-4----------------0-3-4----------------|
[ Tab from: http://www.guitartabs.cc/tabs/n/nugent_ted/cat_scratch_fever_tab_ver_2.html ]
Fill:
e|---------------------|
B|-15b17r15-13-15b-15b-|
G|---------------------|
D|---------------------|
A|---------------------|
E|---------------------|

Verse:
e|------------------------------------------|
B|-2-5-2-5-2-5-2-5-5-2-5-2------------------|
G|-2-5-2-5-2-5-2-5-5-2-5-2----------7-7-7---|
D|-2-5-2-5-2-5-2-5-5-2-5-2--5-5-5-5-7-7-7-7-|
A|-0-0-0-0-0-0-0-0-0-0-0-0--5-5-5-5-5-5-5-7-|
E|--------------------------3-3-3-3-------5-|

Chorus:
e|-------------------------------------------|
B|-------2-4-5-5--2-4-5-------2-4-5-5--5-4-2-|
G|-------2-4-5-5--2-4-5-------2-4-5-5--5-4-2-|
D|-------2-4-5-5--2-4-5-------2-4-5-5--5-4-2-| x2
A|-------0-0-0-0--0-0-0-------0-0-0-0--0-0-0-|
E|-0-3-4----------------0-3-4----------------|

Repeat The Verse and th chorus a couple more times.
i dont have the solo yet but when i figure it out ill post it.
Comments