Nue Yuthe - Notes Chords & Tabs

 

Notes Chords & Tabs

Nue Yuthe Chords & Tabs

Version: 1 Type: Tab 0 ratings
1 star 2 stars 3 stars 4 stars 5 stars
comments

Notes Tab

====================================================================================
 Title: Notes                                Author: Josh & Ilan
 Copyright: 2001 Nue Yuthe                   Album: Nue Yuthe Demo
 Category: Punk Rock                         Tempo: Fast 
 Tabber: Nue Yuthe                           Key of: um... key?!?! i have a key ^_^
 Notes: um... this song is um... good ^_^
====================================================================================



Vibrato Sign:       --6~--     Slide Up:         --5/7--
Slide Down:         --7\5--    Harmonic sign:    --!12!--
Semi Harmonic Sign: --'5'--    Left Hand Muting: --l(5)--
Palm Muting:        ---x---    Tremolo:          --{5}--
Pick Slide:         --p(5/7)-- Bend String:      --5b(7)--
Release From Bend:  --(7)b5--  Wammy Bar Bend:   --5w(7)--
Hammer On:          --h3--     Hammer Off:       --3h--

We are Nue Yuthe from Highland Park Illinois. We have about 8 songs and this is the first song we ever made. We play punk and are cool so, well, enjoy ^_^
     - Ian, Josh, & Ilan 
 Intro:                           
  |----------------------------------2X-----------------------------------| 
e :-----------------|-----------------|-----------------|-----------------|--------
B :-----------------|-----------------|-----------------|-----------------|--------
G :----7------------|-----------------|-----------------|-----------------|--------
D :--7---7---7---7--|----7------------|----9------------|5-----5--5-------|--------
A :5-------5---5----|--7---7---7---7--|--9---9---9---9--|5-----5--5-------|--------
E :-----------------|5-------5---5----|7-------7---7----|3-----3--3-------|--------

e :-----------------|-----------------|-----------------|3----------------|--------
B :-----------------|-----------------|-----------------|3----------------|--------
G :--7-------9------|----------------7|-------9---------|4----------------|--------
D :----7-------9----|9-------5--------|-7-------9-9-9-9-|5----------------|--------
A :5-------7--------|--9-------5---5--|-----7-----9-9-9-|5----------------|--------
E :---------------7-|------3----------|-----------7-7-7-|3----------------|--------

Extreme Distortion:
  (really fast) ^_^
e :-----------------|-----------------|-----------------|-----------------|--------
B :-----------------|-----------------|-----------------|-----------------|--------
G :7-7-7-7-7-x-x-x--|-----------------|-----------------|-----------------|--------
D :7-7-7-7-7-x-x-x--|7-7-7-7-7-x-x-x--|9-9-9-9-9-x-x-x--|5-5-5-5-5-x-x-x--|--------
A :5-5-5-5-5-x-x-x--|7-7-7-7-7-x-x-x--|9-9-9-9-9-x-x-x--|5-5-5-5-5-x-x-x--|--------
E :-----------------|5-5-5-5-5-x-x-x--|7-7-7-7-7-x-x-x--|3-3-3-3-3-x-x-x--|--------
[ Tab from: http://www.guitartabs.cc/tabs/n/nue_yuthe/notes_tab.html ]
  |----------------2X-----------------|
e :-----------------|-----------------|-----------------|-----------------|--------
B :-----------------|-----------------|-----------------|-----------------|--------
G :7-7-7-7-9-9-9-9--|-----------------|-----------------|-----------------|--------
D :7-7-7-7-9-9-9-9--|9-9-9-9-5-5-5-5--|-----------------|-----------------|--------
A :5-5-5-5-7-7-7-7--|9-9-9-9-5-5-5-5--|-----------------|-----------------|--------
E :-----------------|7-7-7-7-3-3-3-3--|-----------------|-----------------|--------

Verse:
              
  |----------------2X-----------------|------------------2X-------------------|
e :-----------------|-----------------|-----------------|-----------------|--------
B :-----------------|-----------------|-----------------|-----------------|--------
G :7-xxxxxx---------|-----------------|7-7-7-7-7-9-9-9-9|9----------------|--------
D :7-xxxxxx-7-xxxxxx|9-xxxxxx-5-5-5---|x-x-x-x-x-x-x-x-x|x-9-9-9-9-9-5-5-5|5-5-----
A :5-xxxxxx-7-xxxxxx|9-xxxxxx-5-5-5---|5-5-5-5-5-7-7-7-7|7-x-x-x-x-x-x-x-x|x-x-----
E :---------5-xxxxxx|7-xxxxxx-3-2-3---|-----------------|--7-7-7-7-7-3-3-3|3-3-----

Chorus:

  |-------2X--------|-------2X--------|    
e :-----------------|-----------------|-----------------|-----------------|--------
B :-----------------|-----------------|-----------------|-----------------|--------
G :7-7--------------|7-7-9-9----------|-----------------|-----------------|--------
D :7-7-7-7-9-9-5-5--|7-7-9-9-9-9-5-5--|---------Bass----|-----Solo--------|--------
A :5-5-7-7-9-9-5-5--|5-5-7-7-9-9-5-5--|-----------------|-----------------|--------
E :----5-5-7-7-3-5--|--------7-7-3-3--|-----------------|-----------------|--------

Bridge:

  |----------------2X-----------------|----------------2X-----------------|
e :-----------------|-----------------|-----------------|-----------------|--------
B :-----------------|-----------------|-----------------|-----------------|--------
G :7-7--------------|-----------------|----7------------|-----------------|--------
D :7-7-----7-7------|9-9-----5-5------|------7-----7----|----9-------5----|p(12/3)-
A :5-5-----7-7------|9-9-----5-5------|5-------------7--|------9-------5--|--------
E :--------5-5------|7-7-----3-3------|--------5--------|7-------3--------|--------

Repeat Verse

Bridge 2:
  
  |----------------2X-----------------|
e :-----------------|-----------------|-----------------|-----------------|--------
B :-----------------|-----------------|-----------------|-----------------|--------
G :--7-------9------|-----------------|-----------------|-----------------|--------
D :----7-------9----|--9-------5------|-----------------|-----------------|--------
A :5-------7--------|----9-------5----|-----------------|-----------------|--------
E :-----------------|7-------3--------|-----------------|-----------------|--------

Repeat Chorus 2x

End

Alright... thats it tell us if you like it... have fun. 

P.S. You can e-mail us at gitteri60@aol.com for suggestions or whatever.



Comments