Nudeswirl - When Im Dead Chords & Tabs

 

When Im Dead Chords & Tabs

Nudeswirl Chords & Tabs

Version: 1 Type: Bass Tab 0 ratings
1 star 2 stars 3 stars 4 stars 5 stars
comments

When Im Dead Bass Tab

Artist: Nudeswirl
Album: Nudeswirl
Song: When I'm Dead
Track#: 8
Bassist: Chris Wargo

Intro
G|-----------------------|
D|-----------------------|
A|---------------------8-|
E|-8-6-6-8-6-8-6-6-6-8---|

G|-----------------------|
D|-----------------------|
A|---------------------8-|
E|-8-6-6-8-6-8-6-6-6-8---|

G|-----------------------|
D|-----------------------|
A|---------------------8-|
E|-8-6-6-8-6-8-6-6-6-8---|

G|-----------------------|
D|-----------------------|
A|-------------------8---|
E|-8-6-6-8-6-8-6-6-6-----|
[ Tab from: http://www.guitartabs.cc/tabs/n/nudeswirl/when_im_dead_btab.html ]
Verse
G|-----------------------|
D|-----------------------|
A|---------------------7-|
E|-7-5-5-7-5-7-5-5-5-7---|

G|-----------------------|
D|-----------------------|
A|---------------------7-|
E|-7-5-5-7-5-7-5-5-5-7---|

G|-----------------------|
D|-----------------------|
A|---------------------7-|
E|-7-5-5-7-5-7-5-5-5-7---|

G|-----------------------|
D|-----------------------|
A|---------------------7-|
E|-7-5-5-7-5-7-5-5-5-7---|

G|-----------------|
D|-----------------|
A|-----------------|
E|-6-6-x-6\--3/5-6-|

Same for guitar solo, and chorus.

Outro
G|----------------------|
D|----------------------|
A|----------------------|
E|-10\7-7-7-x-7-x-7-5/7-|

And that's the song. Pretty easy all in all on any instrument.
Comments