Nudeswirl - F Sharp Chords & Tabs

 

F Sharp Chords & Tabs

Nudeswirl Chords & Tabs

Version: 1 Type: Tab 0 ratings
1 star 2 stars 3 stars 4 stars 5 stars
comments

F Sharp Tab

Band: Nudeswirl
Song: F Sharp
Album: s/t
Label: Megaforce Records 1993

Intro and Verse Riff
e|--------------------------------------|
B|--------------------------------------|
G|--------------------------------------|
D|---4--x-x-4--x--4-x-4-x-7-------------|
A|---4--x-x-4--x--4-x-4-x-7-------------|
E|---2--x-x-2--x--2-x-2-x-5----2b-------|
                              |--bend into chorus riff--|

Chorus
e|------0-------------------------------------|
B|------0-------------------------------------|
G|---------4---4p-2p-0------------------------|
D|---2-----4------------4p-2p-0p--------------|
A|---2-----2----------------------4p-2p-0p----|
E|---0-----2----------------------------------|


Solo
e|-------------------------------------------------------------------|
B|-------14--14--16b--14---------------------------------------------|
G|------------------------15--15--16---------------------------------|
D|---16-------------------------------17--16-------------------------|
A|-------------------------------------------------------------------|
E|-------------------------------------------------------------------|

e|--------------------------------------------------------------------|
B|-----------------------14--14--16--16b--14--------------------------|
G|-----------15--15--16-----------------------15----------------------|
D|---16--17---------------------------------------16b--14--16p--14----|
A|-----------------------------------------------------------------12-|
E|--------------------------------------------------------------------|
[ Tab from: http://www.guitartabs.cc/tabs/n/nudeswirl/f_sharp_tab.html ]
e|---------------------------------------------------------------------|
B|------------14-14-14-------------------------------------------------|
G|----------------------16-16-16--15---15--15-16-15--------16-15-------|
D|--16-16-16----------------------------------------17-16--------17-16-|
A|---------------------------------------------------------------------|
E|---------------------------------------------------------------------|

e|--------------------------------------------------------------------|
B|--------------------------------------------------------------------|
G|--------------------------------------------------------------------|
D|---16b-14-16-x-x-x-x---16b-14-16b---14-------feedback---------------|
A|-------------x-x-x-x------------------------------------------------|
E|-------------x-x-x-x------------------------------------------------|
   |-----4--times-----------------------------------------------------|


Outro Riff
e|---------------12---12-x-12-----------------------------------------|
B|---------------11-x-11-x-11---2--2--4-------------------------------|
G|---------------11-x-11-x-11---2--2--4--4b-2b-0----------------------|
D|---4--x-x-4--x-11-x-11-x-11---2--2--4----------4b-2b-0--------------|
A|---4--x-x-4--x----------------0--0--2------------------4b-2b-0------|
E|---2--x-x-2--x------------------------------------------------------|
    |---------repeat---------| |------------end tag-------------------|

Last Chord
e|---2---------------------------------------------------------------|
B|---2---------------------------------------------------------------|
G|---3---------------------------------------------------------------|
D|---4---------------------------------------------------------------|
A|---4---------------------------------------------------------------|
E|---2---------------------------------------------------------------|
Comments