Nuclear Jet - Libre De Moi Chords & Tabs

 

Libre De Moi Chords & Tabs

Nuclear Jet Chords & Tabs

Version: 1 Type: Tab 0 ratings
1 star 2 stars 3 stars 4 stars 5 stars
comments

Libre De Moi Tab

   
 .----------------------------.
/  nuclear jet - libre de moi  \
`------------------------------'
 | guessed by: michel belleau |
 +----------------------------+

this song will be on their new (first!) album which will be out soon
guitar line

(tab is in standard tuning, feel free to 1/2 step down)
[ Tab from: http://www.guitartabs.cc/tabs/n/nuclear_jet/libre_de_moi_tab.html ]
guitar - main part (disto)
|----------------------------------------------------------------|
|----------------------------------------------------------------|
|----------------------------------------------------------------|
|---------5-55-55-6-66-66-6-66-66--------------------------------|
|-6-66-66-3-33-33-4-44-44-4-44-44-(repeat once and then add)-2-4-|
|-4-44-44----------------------------------------------------0-2-| 

guitar - verses (clean)
    a         b
|-------| |-------|
|-----4-| |-----4-|
|---1---| |---1---|
|-1-----| |-3-----|	like that: aaaaba aaaabab
|-------| |-------|
|-------| |-------| 

guitar - fill (disto)
|----------------------|
|----------------------|
|----------------------|
|----------------------|
|-2-22-22-22-4-44-6-66-|
|-0-00-00-00-2-22-4-44-| 
Comments