Nuclear Family - Poor Baby Chords & Tabs

 

Poor Baby Chords & Tabs

Nuclear Family Chords & Tabs

Version: 2 Type: Bass Tab 0 ratings
1 star 2 stars 3 stars 4 stars 5 stars
comments

Poor Baby Bass Tab

   
Song Title: Poor Baby
Artist: The Nuclear Family
----------------------------------------------

"Poor Baby" by The Nuclear Family an up and coming band in the SF Bay Area

Intro
G:----------------------|
D:----------------------|
A:----------------------|
E:-0-0-0-0-0-0-0-0\12\1-|

Verse
G:---------------------------------|
D:---------------------------------|
A:-3-3-3-3-3-3-3-3-3-3-3-3-1-1-2-2-|
E:---------------------------------|
     Do this 3x then do this 1x
G:---------------------------------|
D:---------------------------------|
A:-3-3-3-3-3-3-3-3-3-3-3-3-3-3-3-3-|
E:---------------------------------|
[ Tab from: http://www.guitartabs.cc/tabs/n/nuclear_family/poor_baby_btab_ver_2.html ]
Chorus
G:---------------------------------|
D:---------------------------------|
A:-5-5-5-5-5-5-5-5-----------------|
E:-----------------3-3-3-3-8-8-8-8-|
      Do this 2x then this 1x
G:-----------------|
D:-----------------|
A:-5-5-5-5-5-5-5-5-|
E:-----------------|

repeat verse then chorus
then during solo play this
G:-------------------------------------------------|
D:-------------------------------------------------|
A:-6-7-6-7-6-7-6-7-6-7-6-7-6-7-6-------------------|
E:------------------------------\2-2-2-2-2-2-2-2-2-|

then play verse, chorus, verse, verse, chorus then slam hard on the open E after
the last chorus.
That's all it's a damnb good song i've seen them play it a couple times it rocks.
Jeff Green

Submitted by:  Jeff Green 

Comments