Nuclear Assault - Surgery Chords & Tabs

 

Surgery Chords & Tabs

Nuclear Assault Chords & Tabs

Version: 1 Type: Tab 0 ratings
1 star 2 stars 3 stars 4 stars 5 stars
comments

Surgery Tab

Nuclear Assault - Surgery
Submitted By: Nick Statuto
EMail: Pantera9560@aol.com
HANDLE WITH CARE (1989)

Tabbed by Nick S. (Pantera9560@aol.com) If you E-mail use the subj. 
"Surgery gtr. tablature." This is the only Nuclear Assault tab at 
so far and we could use some more. I'm probably gonna put up more gtr. tabs
from this album, but I'm not sure how soon that will be. Click where it says:
"Click to view in full screen" 'cause it might look screwed up otherwise. You
probably want me to shut up now so you can see the tab, here it is:

Riff 1A 6x
E-0-0-6-8-7-0-6-0-0-0-6-8-7-0-6-0---
  *  *             *      *  * *

Riff 1B 4x
A-----8-10-9-0-6-0---
E-0-0-6--8-7-0-6-0---
[ Tab from: http://www.guitartabs.cc/tabs/n/nuclear_assault/surgery_tab.html ]
Riff 2 3x
D--------------------------------------------------------8--10--11---
A-----8-----8-----8-----8-----------8-----8-----8-----8--6---8---9---
E-0-0-6-0-0-6-0-0-6-0-0-0-2-3-0-0-6-0-0-6-0-0-6-0-0-6--------------
  * *   * *   * *   * *         * *   * *   * *   * *

Riff 3 4x
D-8--8--8--11--9-----------
A-6--6--6---9--7-7777777---
                 *******

Riff 2 twice
Riff 3 4x

Riff 4 4x
D-------3-----3-------3-----3------
A-------1-----1-------1-----1--3---
E-0-0-0---000---0-0-0---000----1---
  * * *   ***   * * *   ***

After the 4th time play an E5 chord and let it ring for a second, then a pickslide
then use the whammy bar to get some good feedback.

Riff 5 twice (2nd time only play the first half of the riff)
G---------8-------------
D-8-9-9/8-6-8-9-9/8-----
A-6-7-7/6---6-7-7/6-7---
E-----------0-------5---

Riff 2 3x
Riff 3 4x
Riff 4 4x then end with an E5 chord.
Comments