Nu Pagadi - Sweetest Poison Chords & Tabs

 

Sweetest Poison Chords & Tabs

Nu Pagadi Chords & Tabs

Version: 1 Type: Tab 0 ratings
1 star 2 stars 3 stars 4 stars 5 stars
comments

Sweetest Poison Tab

   
Da es hier noch keine Version von Sweetest Poison gibt, habe ich mal mein Glück
versucht. Es ist zwar nicht die Version, die von Lukas H. gespielt wurde, doch
es klingt fast genau so. (Dies ist eines meiner ersten Tabs also kann es gut sein,
dass Fehler enthalten sind!)

Piano Intro:
(Clean Guitar)

|-------3-|
|-----5---|
|---4-----|
|-2-------|
|---------|
|---------|

|-------3-|
|-----5---|
|---4-----|
|---------|
|-3-------|
|---------|


|-------3-|
|-----5---|
|---4-----|
|---------|
|---------|
|-3-------|
[ Tab from: http://www.guitartabs.cc/tabs/n/nu_pagadi/sweetest_poison_tab.html ]
|-----2---|
|-------5-|
|---4-----|
|-0-------|
|---------|
|---------|


Main Riff:
(Tuning: Half Step Down)
|-------------------|
|-------------------|
|-------------------|
|-------------------|
|-2-2-2-2-2-2-2-3-2-|
|-0-0-0-0-0-0-0-5-4-| 3x


|---------------------|
|---------------------|
|---------------------|
|----------------7//7-|
|-2-2-2-2-2-2-2--5//9-|
|-0-0-0-0-0-0-0-------| 

Der Powerakkord, der ab und zu eingespielt wird ist:

A|-5-|
E|-3-|


eMails & Support to => McGrave@web.de

Thanks to Metatron...
Comments