Nu - Factory Girl Chords & Tabs

 

Factory Girl Chords & Tabs

Nu Chords & Tabs

Version: 1 Type: Tab 0 ratings
1 star 2 stars 3 stars 4 stars 5 stars
comments

Factory Girl Tab

   
Band: NU
Song: Factory Girl
Album: Alphabravoshockpopdisco!
www.wearenu.com

------------
Factory Girl
------------

Written by: NU
Produced by: Adventure records

Tabbed by: Rozzer


Standard tuning, and a healthy supply of distortion

I decided to do this one in detail, it's laid out
exactly as it is on the album, enjoy!!

INTRO
e|----------| 
B|----------| 
G|----------| 
D|-2-7-5-10-|
A|-2-7-5-10-|
E|-0-5-3--8-| (4)

(Strumming: each chord is struck 4 times,
 with no break between them)


VERSE
e|------------------------------------- 
B|------------------------------------- 
G|-99999999-88888888-77777777---------- 
D|-99999999-88888888-77777777-77777777-
A|-77777777-66666666-55555555-77777777-
E|----------------------------55555555-

e|----------------------------------------| 
B|----------------------------------------| 
G|-99999999-88888888-77777777-------------| 
D|-99999999-88888888-77777777-7777-9------|
A|-77777777-66666666-55555555-7777-9-stop!|
E|----------------------------5555-7------| (2)

(Strumming pattern: no. of times each chord
 is struck is shown above, and each chord is
 played successively with no breaks!)


CHORUS
e|----------| 
B|----------| 
G|----------| 
D|-2-7-5-10-|
A|-2-7-5-10-|
E|-0-5-3--8-| (4)

(Strumming: same as intro)

chorus ends on this (different from intro!):
e|---------               ----              
B|---------               ----              
G|---------               ----              
D|-2-2-2-2-               -14-              
A|-2-2-2-2- then slide to -14- 
E|-0-0-0-0-               -12-              

(slide is pure finger work, don't strum!)

VERSE 2
e|------------------------------------- 
B|------------------------------------- 
G|-99999999-88888888-77777777---------- 
D|-99999999-88888888-77777777-77777777-
A|-77777777-66666666-55555555-77777777-
E|----------------------------55555555-
[ Tab from: http://www.guitartabs.cc/tabs/n/nu/factory_girl_tab.html ]
e|--------------------------------------- 
B|--------------------------------------- 
G|-99999999-88888888-77777777------6^---- 
D|-99999999-88888888-77777777-7777-------
A|-77777777-66666666-55555555-7777-------
E|----------------------------5555------- 

e|------------------------------------- 
B|------------------------------------- 
G|-99999999-88888888-77777777---------- 
D|-99999999-88888888-77777777-77777777-
A|-77777777-66666666-55555555-77777777-
E|----------------------------55555555-

e|----------------------------------- 
B|----------------------------------- 
G|-99999999-88888888-77777777-------- 
D|-99999999-88888888-77777777-7777-9-
A|-77777777-66666666-55555555-7777-9-
E|----------------------------5555-7-

e|----------------|                             
B|-11^-11^-11^-11^|                             
G|----------------|                                             
D|----------------|                             
A|----------------| 
E|----------------|
(i.e. 4 fast half bends)

CHORUS 2
e|----------| 
B|----------| 
G|----------| 
D|-2-7-5-10-|
A|-2-7-5-10-|
E|-0-5-3--8-| (3)

e|------------------ 
B|------------------ 
G|------------------ 
D|-2-6-7-8/slide-up-
A|-2-6-7-8/slide-up-
E|-0-4-5-6/slide-up-

e|---| 
B|---| 
G|---| 
D|-2-|
A|-2-|
E|-0-|

Then put down the guitar
and clap along!!

After a few seconds, stop
clapping and play this. . .

e|------------------------------------------------------------| 
B|------------------------------------------------------------| 
G|------------------------------------------------------------| 
D|-77-7^7^------77-7^7^------77-7^7^------77-7^7^-------------| 
A|--------7-9^---------7-9^---------7-9^---------7-9^9^9^9^9^-|
E|------------------------------------------------------------|

CHORUS 
e|----------| 
B|----------| 
G|----------| 
D|-2-7-5-10-|
A|-2-7-5-10-|
E|-0-5-3--8-| (7)

e|------------------ 
B|------------------ 
G|------------------ 
D|-2-6-7-8/slide-up-
A|-2-6-7-8/slide-up-
E|-0-4-5-6/slide-up-

e|-------------------------| 
B|-------------------------| 
G|-9------9------9---------| 
D|-9--10--9--10--9--10--2--|
A|-7--10--7--10--7--10--2--|
E|----8------8------8---0--|



/ = slide
^ = bend up
Comments