Nsync - Lean On Me Chords & Tabs

 

Lean On Me Chords & Tabs

Nsync Chords & Tabs

Version: 1 Type: Bass Tab 0 ratings
1 star 2 stars 3 stars 4 stars 5 stars
comments

Lean On Me Bass Tab

Quite Easy


G-------------------------------------
D-------------------------------------
A------0-0-2-4-5-0-5-4-2-0-0-2-4-4-52-
E-0-2-4-0-----------------0-----------


G-------------------------------------
D-------------------------------------
A------0-0-2-4-5-0-5-4-2-0-0-2-4---0--
E-0-2-4-0-----------------0------4----


G-------------------------------------
D-------------------------------------
A------0-0-2-4-5-0-5-4-2-0-0-2-4-4-52-
E-0-2-4-0-----------------0-----------


G-------------------------------------
D-------------------------------------
A------0-0-2-4-5-0-5-4-2-0-0-2-4---0--
E-0-2-4-0-----------------0------4----

[ Tab from: http://www.guitartabs.cc/tabs/n/nsync/lean_on_me_btab.html ]
G-------------------------------------
D-------------------------------------
A------0-0-2-4-5-0-5-4-2-0-0-2-4-4-52-
E-0-2-4-0-----------------0-----------


G-------------------------------------
D-------------------------------------
A------0-0-2-4-5-0-5-4-2-0-0-2-4---0--
E-0-2-4-0-----------------0------4----


G-------------------------------------
D-------------------------------------
A------0-0-2-4-5-0-5-4-2-0-0-2-4-4-52-
E-0-2-4-0-----------------0-----------


G-------------------------------------
D-------------------------------------
A------0-0-2-4-5-0-5-4-2-0-0-2-4---0--
E-0-2-4-0-----------------0------4----


I like it... :-/
Comments