Nrok - Victim Of Destiny Chords & Tabs

 

Victim Of Destiny Chords & Tabs

Nrok Chords & Tabs

Version: 1 Type: Tab 0 ratings
1 star 2 stars 3 stars 4 stars 5 stars
comments

Victim Of Destiny Tab

VICTIM OF DESTINY
by n’RoK

www.n-rok.de.vu
partypopper7@hotmail.com

Intro

|-----------------|-----------------|-----------------|-----------------|
|-----------------|-----------------|-----------------|-----------------|
|-----------------|-----------------|-----------------|-7---7-5---5-5-5-|
|-----------------|-----------------|-----------------|-7---7-5---5-5-5-| play 4x
|------2--2h3p2---|------2--2h3p2---|------2--2h3p2---|-5---5-3---3-3-3-|
|-0--0----------3-|-0--0----------3-|-0--0----------3-|-----------------|

			      REPEAT 2x
||------------------------------------||---------------------------------|
||------------------------------------||---------------------------------|
||.-9---9---9-9-9-9------------------.||---------------------------------|
||.-9---9---9-9-9-9-9-9-9-10--101010-.||-7-7-7-7-7-7-7-7-5-5-5-4---4-4-4-|
||--7---7---7-7-7-7-9-9-9-10--101010--||-7-7-7-7-7-7-7-7-5-5-5-4---4-4-4-|
||------------------7-7-7-8---8-8-8---||-5-5-5-5-5-5-5-5-3-3-3-2---2-2-2-|

|-----------------|-----------------|-----------------|-----------------|
|-----------------|-----------------|-----------------|-----------------|
|-----------------|-----------------|-----------------|-7---7-5---5-5-5-|
|-----------------|-----------------|-----------------|-7---7-5---5-5-5-| play 2x
|------2--2h3p2---|------2--2h3p2---|------2--2h3p2---|-5---5-3---3-3-3-|
|-0--0----------3-|-0--0----------3-|-0--0----------3-|-----------------|


Verse
                                                        REPEAT 5x 
|------|------|------|------||-----------------------------------||
|------|------|------|------||--palm-muted-palm-muted-palm-muted-||
|------|------|------|------||.-----------------5-5-5-7-7-7-9-9-.||
|------|------|------|------||.-2-2-2-2-2-2-2-2-5-5-5-7-7-7-9-9-.||
|------|------|------|------||--2-2-2-2-2-2-2-2-3-3-3-5-5-5-7-7--||
|-0----|-(0)--|-(0)--|-(0)--||--0-0-0-0-0-0-0-0------------------||

[ Tab from: http://www.guitartabs.cc/tabs/n/nrok/victim_of_destiny_tab.html ]
Chorus
			      REPEAT 2x
||------------------------------------||---------------------------------|
||------------------------------------||---------------------------------|
||.-9---9---9-9-9-9------------------.||---------------------------------|
||.-9---9---9-9-9-9-9-9-9-10--101010-.||-7-7-7-7-7-7-7-7-5-5-5-4---4-4-4-| play 2x
||--7---7---7-7-7-7-9-9-9-10--101010--||-7-7-7-7-7-7-7-7-5-5-5-4---4-4-4-|
||------------------7-7-7-8---8-8-8---||-5-5-5-5-5-5-5-5-3-3-3-2---2-2-2-|


Fill

|-----------------|-----------------|-----------------|-----------------|
|-----------------|-----------------|-----------------|-----------------|
|-----------------|-----------------|-----------------|-7---7-5---5-5-5-|
|-----------------|-----------------|-----------------|-7---7-5---5-5-5-| play 2x
|------2--2h3p2---|------2--2h3p2---|------2--2h3p2---|-5---5-3---3-3-3-|
|-0--0----------3-|-0--0----------3-|-0--0----------3-|-----------------|


Verse


Chorus


Fill


Interlude

|---------------------------------|
|-palm-muted-palm-muted-palm-muted|
|---------7-7-7-7-5-5-5-5---------|
|-2-2-2-2-7-7-7-7-5-5-5-5-7-7-7-7-| play 12x
|-2-2-2-2-5-5-5-5-3-3-3-3-7-7-7-7-|
|-0-0-0-0-----------------5-5-5-5-|

Interlude: Gradually release mute towards end of Interlude


Chorus


Outro

|-----------------|-----------------|-----------------|-----------------|
|-----------------|-----------------|-----------------|-----------------|
|-----------------|-----------------|-----------------|-7---7-5---5-5-5-|
|-----------------|-----------------|-----------------|-7---7-5---5-5-5-| play 4x
|------2--2h3p2---|------2--2h3p2---|------2--2h3p2---|-5---5-3---3-3-3-|
|-0--0----------3-|-0--0----------3-|-0--0----------3-|-----------------|

|--------------------------|
|--------------------------|
|--------------------------|
|-2~~~---------------------|
|-2~~~---------------------|
|-0~~~---------------------|


  

Comments