Nrok - Kommerz Chords & Tabs

 

Kommerz Chords & Tabs

Nrok Chords & Tabs

Version: 1 Type: Tab 0 ratings
1 star 2 stars 3 stars 4 stars 5 stars
comments

Kommerz Tab

KOMMERZ
by n'RoK

Intro

|--------------------------|
|--------------------------|
|--------------------------|
|--------------------------|
|------3--3-2--0--0--------| play 4x
|-0--0--------------3--3-2-|


Chorus

|---------------------------------|
|---------------------------------|
|---------------------------------|
|-2-2-2-2-5-5-5-5-7-7-7-7-9-9-7-5-|
|-2-2-2-2-5-5-5-5-7-7-7-7-9-9-7-5-| play 4x
|-0-0-0-0-3-3-3-3-5-5-5-5-7-7-5-3-|


Verse
[ Tab from: http://www.guitartabs.cc/tabs/n/nrok/kommerz_tab.html ]
|--------------------------|
|--------------------------|
|--------------------------|
|--------------------------|
|------3--3-2--0--0--------| play 4x
|-0--0--------------3--3-2-|


--> Chorus

--> Verse

--> Chorus


Bridge

|-------------------------------|
|-------------------------------|
|-------------------------------|
|-4--5--6--6-6-6-5--6--7--7-7-7-|
|-4--5--6--6-6-6-5--6--7--7-7-7-| play 2x
|-2--3--4--4-4-4-3--4--5--5-5-5-|


--> Verse

--> Chorus (play 3x)
Comments