Nrok - Game Of Death Chords & Tabs

 

Game Of Death Chords & Tabs

Nrok Chords & Tabs

Version: 1 Type: Tab 0 ratings
1 star 2 stars 3 stars 4 stars 5 stars
comments

Game Of Death Tab

   
GAME OF DEATH
by n'RoK
 _
|A| clean

|-----------------------------------------------------------------|
|-----0-----0---------0-----0---------0-----0---------0-----0-----|
|---0-----0---0-----0-----0---0-----0-----0---0-----2-----2---2---|
|-2-----2-------2-0-----0-------0-------------------------------0-|
|---------------------------------3-----3-------3-0-----2---------|
|-----------------------------------------------------------------|
 _
|B| dist.

E E D D E E C D  E E D D C C A B
 _
|C| dist.

E E D D C C A B
 ______
|Fill 4|

|-------------------------2p0-------------3p0---------------------|
|-----0-----0---------0-------0-------0-------0-------0-----0-----|
|---0-----0---0-----0---0-------0---0---0-------0---2-----2---2---|
|-2-----2-------2-0---------------------------------------------0-|
|---------------------------------3---------------0-----2---------|
|-----------------------------------------------------------------|
[ Tab from: http://www.guitartabs.cc/tabs/n/nrok/game_of_death_tab.html ]
|---------2p0-------------3p0-----------0-------------------------|
|-----0-------0-------0-------0-------0-----0---------0-----0-----|
|---0---0-------0---0---0-------0---0---------0-----2-----2---2---|
|-2---------------0---------------------------------------------0-|
|---------------------------------3---------------0-----2---------|
|-----------------------------------------------------------------|
 ____
|solo|

|------------------------------------------------------------|
|-5---5h8-8b10-8-5---5---------------------------------------|
|---7--------------7---7-4---4-------------------------------|
|--------------------------7---7-5-7-5--------5---5-7/9-7~~~-|
|--------------------------------------7~~~-7---7------------|
|------------------------------------------------------------|

|-----------------------------------------------------------|
|-------------10b12-10-8------------------------------------|
|-7h9-9-7h9-9------------9-7h9-9-7h9-9-7--------------------|
|----------------------------------------9-7----7-----------|
|--------------------------------------------10---10-7-7~~~-|
|-----------------------------------------------------------|

|---------------------|
|---------------------|
|----------------9~~~-|
|---------9-7---------|
|----7-10-----10------|
|-10------------------|

    


		|THE SONG|

 
Intro	2x A

Verse 1	2x A

Chorus	1x B

Fill 1	1x C

Fill 2	E~~~(A)

Verse 2	3x A

Chorus	1x B

Fill 3	2x C

Fill 4	

Verse 3	2x A

Chorus	1x B

Solo	2x C

Chorus	1x B

Outro	2x C
Comments