Now Now - Neighbors Chords & Tabs

 

Neighbors Chords & Tabs

Now Now Chords & Tabs

Version: 2 Type: Tab 0 ratings
1 star 2 stars 3 stars 4 stars 5 stars
comments

Neighbors Tab

-------------------------------------------------------------------------------
                                                NEIGHBORS - Now Now
-------------------------------------------------------------------------------
Tabbed by: Patrick Bozek
E-mail: patrick_bozek@hotmail.com

Tuning:EAC#EBe (Capo 3rd fret) - tab written relative to capo.

Pay attention to tuning and capo position. I based this tab on their acoustic
version of the song. The live/studio version is the same chord shapes, the pattern
is just all down strokes. If you wanna play it like their Nervous Energies session,
play the first note with a downstroke, and the second note with an upstroke.

Intro/Verse: Guitar 1 [Jess]
      (x32)    (x8)    (x8)
e |-------|-------|-------| (x2)
B |-------|-------|-------|
E |-------|-------|-------|
C#|----0--|----0--|----0--|
A |----4--|----0--|----7--|
E |--5----|--2----|--0----|

Intro/Verse: Guitar 2 [Cacie] (comes in the 2nd time the intro gets played)
e |---------------------| (x2)
B |---------------------|
E |---------------------|
C#|----0-0-0-0--0-0-0-0-|
A |---------------------|
E |--10-9-9-9-10-9-7-9--|

e |-------------------------------|
B |-------------------------------|
E |-------------------------------|
C#|----0-0-0-0--0-0-0-0-0-0-0-0-0-|
A |-------------------------------|
E |--10-9-9-9-10-9-7-5-9-7-7-7-7--|

e |-----------------------------|
B |-----------------------------|
E |-----------------------------|
C#|---0-0-0-0-0-0-0-0-0-0-0-0-0-|
A |-----------------------------|
E |--9-7-5-4-9-7-7-7-7-9-7-5-4--|

Chorus: Guitar 1
       (x8)    (x4)    (x4)
e |-------|-------|-------|
B |-------|-------|-------|
E |-------|-------|-------|
C#|----8--|----0--|----0--|
A |----5--|----0--|----7--|
E |--5----|--2----|--0----|

Chorus: Guitar 2
e |---------------------| (x2)
B |---------------------|
E |---------------------|
C#|----0-0-0-0--0-0-0-0-|
A |---------------------|
E |--10-9-9-9-10-9-7-9--|

Interlude:(synth/vocals only) 
   *Notes to fill in the void, this part I'm unsure of, its just what Cacie/Jess sing.
e |----------------------------------|
B |----------------------------------|
E |----------------------------------|
C#|----------------------------------|
A |----------------------------------|
E |--5----7--9--7--9--0-2---4-5-0-4--|
[ Tab from: http://www.guitartabs.cc/tabs/n/now_now/neighbors_tab_ver_2.html ]
Bridge: Guitar 1
e |-----------------|-----------------|-----------------|-----------------|
B |-----------------|-----------------|-----------------|-----------------|
E |-----------------|-----------------|-----------------|-----------------|
C#|-8-8-8-8-8-8-8-8-|-8-8-8-8-8-8-8-8-|-0-0-0-0-0-0-0-0-|-0-0-0-0-0-0-0-0-|
A |-5-5-5-5-5-5-5-5-|-5-5-5-5-5-5-5-5-|-0-0-0-0-0-0-0-0-|-7-7-7-7-7-7-7-7-|
E |-5-5-5-5-5-5-5-5-|-5-5-5-5-5-5-5-5-|-2-2-2-2-2-2-2-2-|-0-0-0-0-0-0-0-0-|

e |-----------------|-----------------|-----------------|-----------------|
B |-----------------|-----------------|-----------------|-----------------|
E |-----------------|-----------------|-----------------|-----------------|
C#|-8-8-8-8-8-8-8-8-|-8-8-8-8-8-8-8-8-|-0-0-0-0-0-0-0-0-|-0-0-0-0-0-0-0-0-|
A |-5-5-5-5-5-5-5-5-|-5-5-5-5-5-5-5-5-|-0-0-0-0-0-0-0-0-|-7-7-7-7-7-7-7-7-|
E |-5-5-5-5-5-5-5-5-|-5-5-5-5-5-5-5-5-|-2-2-2-2-2-2-2-2-|-0-0-0-0-0-0-0-0-|

Bridge: Guitar 2
e |-------------------------|-------------------------|-----------------|-----------------|
B |-------------------------|-------------------------|-----------------|-----------------|
E |-------------------------|-------------------------|-----------------|-----------------|
C#|-------------------------|-------------------------|-----------------|-----------------|
A |-------------------------|-------------------------|-----------------|-----------------|
E |-10-10-10-10-10-10-10-10-|-10-10-10-10-10-10-10-10-|-9-9-9-9-9-9-9-9-|-7-7-7-7-7-7-7-7-|

e |-------------------------|-----------------|-----------------|-----------------|
B |-------------------------|-----------------|-----------------|-----------------|
E |-------------------------|-----------------|-----------------|-----------------|
C#|-------------------------|-----------------|-----------------|-----------------|
A |-------------------------|-----------------|-----------------|-----------------|
E |-10-10-10-10-10-10-10-10-|-9-9-9-9-9-9-9-9-|-7-7-7-7-7-7-7-7-|-9-9-9-9-9-9-9-9-|

Outro: Guitar 1
e |-----------------|-----------------|-----------------| etc.
B |-----------------|-----------------|-----------------|
E |-----------------|-----------------|-----------------|
C#|-8-8-8-8-8-8-8-8-|-8-8-8-8-8-8-8-8-|-8-8-8-8-8-8-8-8-|
A |-5-5-5-5-5-5-5-5-|-5-5-5-5-5-5-5-5-|-5-5-5-5-5-5-5-5-|
E |-5-5-5-5-5-5-5-5-|-5-5-5-5-5-5-5-5-|-5-5-5-5-5-5-5-5-|

Outro: Guitar 2
e |--------------------------------------| (x4)
B |--------------------------------------|
E |--------------------------------------|
C#|--------------------------------------|
A |--------------------------------------|
E |--10-10-9-9-9-9-9-9-10-10-9-9-7-7-9-9-|

e |--------------------|
B |--------------------|
E |--------------------|
C#|--------------------|
A |--------------------|
E |--10-10-9-9-9-9-9-9-|

Order:
Intro/Verse
Chorus
Verse
Interlude
Bridge (x4)
Outro


Enjoy.
Comments