Nova Heather - Walk This World Chords & Tabs

 

Walk This World Chords & Tabs

Nova Heather Chords & Tabs

Version: 1 Type: Bass Tab 0 ratings
1 star 2 stars 3 stars 4 stars 5 stars
comments

Walk This World Bass Tab

   
                      Walk this world Heather Nova
Nice and simple. Im too lazy to write out where the various parts go
but hey
youre not deaf
and if u are
what r u doing playing the bass. Youre not beethoven.


         q  q  e e  q     q  q  ee  q     q  q  ee  q     q  q  ee      
G---||--------------7--|------------7--|------------7--|----------------
D---||*--------7h9-----|--------h9-----|--------h9-----|--------h9------
A---||*--7--7----------|--6--6---------|--5--5---------|--4--4----------
E---||-----------------|---------------|---------------|----------------
    intro/verse                                                         

    q   4x  q  q q  q  q  q  q  q     q  q q  q  q  q  q  q     q  q    
G---7---||------/5--5--5--5--5--5--|------/4--4--4--4--4--4--|----------
D------*||-------------------------|-------------------------|----------
A------*||--3--3-------------------|--2--2-------------------|--7--7----
E-------||-------------------------|-------------------------|----------
            bridge                                                      

    e e  q     w     w       q  q     q  q     q  q     q     q  q      
G-----------|-----|-----||---------|--------|--------|-----|------------
D--------5--|--7--|-----||*--------|--------|--------|-----|------------
A---7h9-----|-----|--7--||*--------|--3--3--|--5--5--|-----|------------
E-----------|-----|-----||---3--3--|--------|--------|--0--|--0--2------
                             chorus                                     

     4x  q  q  q  q  q  q  q  q     q  q  q  q  q  q  e  e   q          
G----||-------/5--5--5--5--5--5--|-------/4--4--4--4--12h14--12--||-----
D---*||--------------------------|-------------------------------||*----
A---*||--3--3--------------------|--2--2-------------------------||*----
E----||--------------------------|-------------------------------||-----
         ending                                                         
[ Tab from: http://www.guitartabs.cc/tabs/n/nova_heather/walk_this_world_btab.html ]
    h   e  e   q   e  Q   q   q    3x  W                                
G--------------12--12h14--14--12---||-----------------------------------
D---14--14h16---------------------*||--14-------------------------------
A---------------------------------*||-----------------------------------
E----------------------------------||-----------------------------------
                                                                        



========================================================================
==                       TABLATURE EXPLANATION                        ==
========================================================================

----------                ----------                ----t---
----5h8--- Hammeron       ----(8)--- Ghost          ----6--- Tap
----------                ---------- Note           --------
----5p8--- Pulloff        ----------                --------

----------                ----------                -----p--
----5/8--- Slide Up       -----x---- Dead           -----7-- Pop
----------                ---------- Note           --s-----
----5\8--- Slide Down     ----------                --5----- Slap 

----------                ||------|| Repeat         --------
----5~~~-- Vibrato        ||*----*||                ---5^--- Bend
----------                ||*----*||                --------
----------                ||------||                --------

----------                ----------                --------
-4:------- Time           ----------                --------
-4:------- Signature      ----------                --------
----------                ----------                --------

Rhythm:
  w = whole note            W = dotted whole
  h = half note             H = dotted half
  q = quarter note          Q = dotted quarter
  e = eighth note           E = dotted eighth
  s = sixteenth note        S = dotted sixteenth
  t = 32nd note             T = dotted 32nd
  x = 64th note             X = dotted 64th
  ^ = triplet

========================================================================
==               Created with BUCKET O' TAB for Windows               ==
==                  For more info email gse@his.com                   ==
========================================================================
Comments