Notwist - Pick Up The Phone Chords & Tabs

 

Pick Up The Phone Chords & Tabs

Notwist Chords & Tabs

Version: 1 Type: Tab 0 ratings
1 star 2 stars 3 stars 4 stars 5 stars
comments

Pick Up The Phone Tab

The Notwist - Pick up the phone (Neon Golden)



Tabbed by Gianfranco Nicoletti a.k.a. Astroboy 
01/10/04 15:30

Verse:

e|-x------------------x----------------------------------
b|-x------------------x----------------------------------
g|-x-(approximately---x---(approx.7 times)---------------
d|-4--- 15 times)-----6----------------------------------
a|-4------------------6----------------------------------
E|-2------------------4--------------------0-0-0-0-0-0-0-


Chorus:
[ Tab from: http://www.guitartabs.cc/tabs/n/notwist/pick_up_the_phone_tab.html ]
e|---------------------------------------------------------------------------------------
b|---------------------------------------------------------------------------------------
g|---------------------------------------------------------------------------------------
d|-9-9-9-9-9-9-9/8-8-8-8-8-8/6-6-6-6-6-6-6-6-6-6-6-6-6-6/4-4-4-4-4-4-4-4/6-6-6-6-6-6-6---
a|-9-9-9-9-9-9-9/8-8-8-8-8-8/6-6-6-6-6-6-6-6-6-6-6-6-6-6/4-4-4-4-4-4-4-4/6-6-6-6-6-6-6---
E|-7-7-7-7-7-7-7/6-6-6-6-6-6/4-4-4-4-4-4-4-4-4-4-4-4-4-4/2-2-2-2-2-2-2-2/4-4-4-4-4-4-4---
Comments