Notre Dame - Notre Dame Fight Song Chords & Tabs

 

Notre Dame Fight Song Chords & Tabs

Notre Dame Chords & Tabs

Version: 1 Type: Tab 0 ratings
1 star 2 stars 3 stars 4 stars 5 stars
comments

Notre Dame Fight Song Tab

Submitted by David Tennant
Compossed by Robbie S. Kull

[ Tab from: http://www.guitartabs.cc/tabs/n/notre_dame/notre_dame_fight_song_tab.html ]
Part One (Intro)
e|------------------------------------------------------------------------|
B|---------------------------------------------------------------------------|
G|---------------------------------------------------------------------------|
D|-------------------------------------5-8-7-5-3-0-----------------------|
A|-5-3-5-6-6-5-6---6-6-6-5-6-8-8-7-8----------------1-3-5-8-6-5-3-1----------------------|
E|---------------------------------------------------------------------------|

Part 2 (Conclusion)
e|---------------------------------------------------------------------------|
B|---------------------------------------------------------------------------|
G|---------------------------------------------------------------------------|
D|----------3-3-3-3---3---1-0-------------------------------------------------------|
A|-----------------------------3---1-------------------------------------------|
E|---------------------------------------------------------------------------|

Song is great for beginners
Comments