Notorious Big - Mo Money Mo Problems Chords & Tabs

 

Mo Money Mo Problems Chords & Tabs

Notorious Big Chords & Tabs

Version: 2 Type: Bass Tab 0 ratings
1 star 2 stars 3 stars 4 stars 5 stars
comments

Mo Money Mo Problems Bass Tab

---------------------------------------------------
Mo Money Mo Problems - (featuring Mase/Puff Daddy)
---------------------------------------------------
From Notorious B.I.G. album "Life After Death"
Tab by Matt Clark, Matt.Clark@umit.maine.edu


 Bass                                             
|--------------------------------------------------------|
|--------------------------------------------------------|
|-4-------4-------------------4--------------------------|
|-----------4-2-----2-4-5-------4-5----------------------|

[ Tab from: http://www.guitartabs.cc/tabs/n/notorious_big/mo_money_mo_problems_btab_ver_2.html ]
 sometimes played like this
|--------------------------------------------------------|
|--------------------------------------------------------|
|-4-------4----------------------------------------------|
|-----------4-2-----2-4-5-----2-4-5----------------------|

 and this
|--------------------------------------------------------|
|--------------------------------------------------------|
|-4-6-7-6-4-------------------4--------------------------|
|-----------4-2-----2-4-5-------4-5----------------------|


 This song is a remake of "I'm coming out" by Diana Ross
 
 I'll try and tab out the guitar sometime..

Comments