Notorious Big - Big Booty Hoes Chords & Tabs

 

Big Booty Hoes Chords & Tabs

Notorious Big Chords & Tabs

Version: 1 Type: Bass Tab

Big Booty Hoes Bass Tab

One of the sweetest rap songs ever and no one has put out a tab yet that I can find.

tune standard
g-----------------|
d---0-1-----------|intro 4x
a-3---------------|
e-----------------|

verse chorus and everything
[ Tab from: http://www.guitartabs.cc/tabs/n/notorious_big/big_booty_hoes_btab.html ]
g-----------------------------------------|
d----0--1----3-------------0--1--3~-------| 3 times
a-3---------------------3-----------------|
e----------------1-1----------------------|

fourth time play this

g---------------------------------------------|
d---0---1---3------------0-1---0-1---0-1------|
a-3--------------------3-----3-----3-----3-3--|
e----------------1-1--------------------------|

repeat verse and stuff slight pause and moderation here and there...just keep rpeating and

you got it