Nothingface - Villains Chords & Tabs

 

Villains Chords & Tabs

Nothingface Chords & Tabs

Version: 1 Type: Tab 0 ratings
1 star 2 stars 3 stars 4 stars 5 stars
comments

Villains Tab

   
Song: "Villains"
Artist: Nothingface
Album: Everyday Atrocity
Transcribed By: Bryan Bramlett (bryanmb87@aol.com)

Tuning: Drop D, Down 2 steps (A#,F,A#,D#,G,C)

INTRO:
|-------------------------|
|-------------------------|
|-10-10-10-10-13-13-13-13-|
|-10-10-10-10-13-13-13-13-|
|--8--8--8--8-11-11-11-11-|
|-------------------------|

VERSE: (palm mute during 2nd verse)
|-----------------------------------------------------------------|
|-----------------------------------------------------------------|
|-----------------------------------------------------------------|
|-----------------------------------------------------------------|
|-6-0-0-0-9-8-6-0-0-6-0-0-6-7-6-4-6-0-0-0-9-8-6-0-0-3-3-3-6-6-6-6-|
|-6-0-0-0-9-8-6-0-0-6-0-0-6-7-6-4-6-0-0-0-9-8-6-0-0-3-3-3-6-6-6-6-|

CHORUS:
|---4--------------------4-----4--------------------|
|-----7---9-7--------------7-----7---9-7------------|
|----------------13-11----------------------13-11---|
|-0-----6-----10-------4-----0-----6-----10-------4-|
|-0-----6-----10-------4-----0-----6-----10-------4-|
|-0-----6-----10-------4-----0-----6-----10-------4-|

BRIDGE: (play 2X as is, play 2X palm muting everything, then do both again)
|--------------------------------------------------------------------|
|--------------------------------------------------------------------|
|--------------------------------------------------------------------|
|--------------------------------------------------------------------|
|-6-0-0-0-10-0-0-5-0-6-0-3-0-0-10-0-5-0-6-0-3-0-0-10-0-5-0-6-0-3-3-3-|
|-6-0-0-0-10-0-0-5-0-6-0-3-0-0-10-0-5-0-6-0-3-0-0-10-0-5-0-6-0-3-3-3-|
PM  . . .    . .   .   .   . .    .   .   .   . .    .   .   .
[ Tab from: http://www.guitartabs.cc/tabs/n/nothingface/villains_tab.html ]
FILL:
|--------------------------------------------------------|
|--------------------------------------------------------|
|--------------------------------------------------------|
|--------------------------------------------------------|
|-0-0-0--0-0-0--0-0-0--0-0-0--0-0-0--0-0-0--0-0-0--4-7-6-|
|-0-0-0--0-0-0--0-0-0--0-0-0--0-0-0--0-0-0--0-0-0--4-7-6-|
PM. .    . .    . .    . .    . .    . .    . .    

INTERLUDE:
|--------------------------------------------------------|
|--------------------------------------------------------|
|--------------------------------------------------------|
|--------------------------------------------------------|
|-0-0-0--0-0-0--0-0-0--4-7-6--0-0-0--0-0-0--4-6-3--0-0-1-|
|-0-0-0--0-0-0--0-0-0--4-7-6--0-0-0--0-0-0--4-6-3--0-0-1-|
PM. .    . .    . .           . .    . .

FILL 2:
|---------------------------------------------|
|---------------------------------------------|
|---------------------------------------------|
|---------------------------------------------|
|-0-0-0--0-0-0--0-0-0--0-0-0--0-0-0--0-0-0--0-|
|-0-0-0--0-0-0--0-0-0--0-0-0--0-0-0--0-0-0--0-|
PM. .    . .    . .    . .    . .    . .

BRIDGE 2: (play 2X as is, play 4X palm muting everything)
|--------------------------------------------------------------------|
|--------------------------------------------------------------------|
|--------------------------------------------------------------------|
|--------------------------------------------------------------------|
|-6-0-0-0-10-0-0-5-0-6-0-3-0-0-10-0-5-0-6-0-3-0-0-10-0-5-0-6-0-3-3-3-|
|-6-0-0-0-10-0-0-5-0-6-0-3-0-0-10-0-5-0-6-0-3-0-0-10-0-5-0-6-0-3-3-3-|
PM  . . .    . .   .   .   . .    .   .   .   . .    .   .   .

OUTRO:
|---|
|---|
|---|
|---|
|-6-|
|-6-|
Comments