Nothingface - Undercut Chords & Tabs

 

Undercut Chords & Tabs

Nothingface Chords & Tabs

Version: 1 Type: Tab 0 ratings
1 star 2 stars 3 stars 4 stars 5 stars
comments

Undercut Tab

Undercut
By Nothingface
Tabbed out by Jester Joe
http://www.angelfire.com/wi/jesterface

Eb|-----------------------------------------------------------------------------------------------
Bb|-----------------------------------------------------------------------------------------------
Gb|-----------------------------------------------------------------------------------------------
Db|-----------------------------------------------------------------------------------------------
Ab|--2--0--2--0--2--3--2--0--2--0--2--3--2--0--2--0--2--0--2--3---0-----3-3---3-3-3
Db|--2--0--2--0--2--3--2--0--2--0--2--3--2--0--2--0--2--0--2--3---0-----3-3---3-3-3
p.m.-----------------------------------------------------------------------


Verse
Eb|--------------------------------------------------
Bb|-------------------------------------------------
Gb|-------------------------------------------------
Db|-------------------------------------------------
Ab|--9---3---5----5------7------7-------7--------
Db|--9---3---3---5-------------------5--------0----


at the tail of every other measure.....
Eb--------------------------------
Bb--------------------------------
Gb--12----12/14----14-----14
Db--x------x--x------x-------x
Ab--10---10/12-----12-----12
Db---------------------------------

[ Tab from: http://www.guitartabs.cc/tabs/n/nothingface/undercut_tab.html ]
Chorus
Eb---------------------------------------------------------------------------------------------
Bb--3-----------------------------------------------------------------------------------------
Gb--2---13/14\13--- --13/14\13----- 13/14\13-------13/14\13--------13/14------
Db--0---x---x--x---0---x---x---x---0--x---x---x----0----x--x---x ----0---x---x------
Ab--0---11/12\11--0---11/12\11- 0--11/12\11---0---11/12\11----0---11/12-----
Db--0--------------- 0----------------0-----------------0-------------------0---------------


Eb------------------------------------ small overdubbed part in middle
Bb------------------------------------- Eb-----------------------------------------
Gb------------------------------------- Bb-----------------------------------------
Db------------------------------------- Gb----12/14--14/16--16----------------
Ab--3--3-3--3-3-3--3--3---3--3--3 Db----x----x--x---x----x----------------
Db--3--3-3--3-3-3--3--3---3--3--3 Ab----10/12 12/14--14----------------




Eb---------------------------------------------------------------------------------------
Bb------------------------------------------------------------------------------0-------
Gb------------------------------------------------------------------------------3-------
Db------------------------------------------------------------------------------0 ------- (Let Ring)
Ab--0--0--7--6---0---7--6--0--7--6---0--7---6---0--6--7----3---0--0--1-------
Db--0--0--7--6---0--7--6--0--7---6---0--7--6----0--6--7----3---0--0--1--------


I'll have the end portion up soon, i gotta finish first though....

Comments