Nothingface - Sleeper Chords & Tabs

 

Sleeper Chords & Tabs

Nothingface Chords & Tabs

Version: 2 Type: Tab 0 ratings
1 star 2 stars 3 stars 4 stars 5 stars
comments

Sleeper Tab

song:sleeper
artist:nothingface
album:everyday atrocity

tuning:dropped d

this is my first tab so dont blame me if it sucks.

verse (repeat)
/------------------------------------------------------------------------/
/------------------------------------------------------------------------/
/----------------------------------------------------------------4-------/
/----1-1-1-1-2-----1-1----4-5-4-----1-1-1-1-2------1-1------4-5-----5-0--/
/------------------------------------------------------------------------/
/-2-------------2------0---------2-------------2--------0----------------/
[ Tab from: http://www.guitartabs.cc/tabs/n/nothingface/sleeper_tab_ver_2.html ]
bridge
/----------------------------------------/
/---------3------------------------------/
/-----------4----------------------------/
/----4-5------5---------4-4-5--5-4-5-----/
/----------------------------------------/
/-2---------------0-2-----------------0--/

interlude
/------------------------------/
/-8-7-----11-10------------10--/
/-----7----------12-11-12------/
/------------------------------/
/------------------------------/
/------------------------------/

chrous (distortion)
/-----------------------------------------------------------------------------/
/-----------------------------------------------------------------------------/
/-----------------------------------------------------------------------------/
/-0-0-0-7\6-0-0-0-7\6-0-3-4-6-0-0-7/6-0-0-0-7/6-0-3-4-1-0/-0-0-0-7-6-0-0-0-7\-/
/-0-0-0-7\6-0-0-0-7\6-0-3-4-6-0-0-7/6-0-0-0-7/6-0-3-4-1-0/-0-0-0-7\6-0-0-0-7\-/
/-0-0-0-7\6-0-0-0-7\6-0-3-4-6-0-0-7/6-0-0-0-7/6-0-3-4-1-0/-0-0-0-7-6-0-0-0-7\-/

outro
/--------------/
/--------------/
/--------------/
/-0-0-3-4-1-0--/
/-0-0-3-4-1-0--/
/-0-0-3-4-1-0--/

and thats all!!!!!!!!

enjoy
Comments